This song is in drop C CGCFAD.If you have any questions or comments E-mail me at [email protected]
Intro-verse
d----------------------------------------------------------------------------------|
a----------------------------------------------------------------------------------|
f----------------------------------------------------------------------------------|
c-2-2-2-0-2------7-7-7-7-10-10-10-10-10-10-10-10----10-10-10--7-7-7-7--------------|
g-2-2-2-0-2------7-7-7-7-10-10-10-10-10-10-10-10----10-10-10--7-7-7-7--------------|
C-2-2-2-0-2------7-7-7-7-10-10-10-10-10-10-10-10----10-10-10--7-7-7-7--------------|
Chorus
d----------------------------------------------------------------------------------------
a----------------------------------------------------------------------------------------
f-5-5-5-5-5-5-5-5-5-5-5-5-5-5-5-5--------------------------------------------------------
c-5-5-5-5-5-5-5-5-5-5-5-5-5-5-5-5-2-2-2-2-2-2-2-2-2-2-2-2-2-2-2-5-5-5-5-5-5-5-5-5-5-5-5-5
g-3-3-3-3-3-3-3-3-3-3-3-3-3-3-3-3-2-2-2-2-2-2-2-2-2-2-2-2-2-2-2-5-5-5-5-5-5-5-5-5-5-5-5-5
C---------------------------------2-2-2-2-2-2-2-2-2-2-2-2-2-2-2-5-5-5-5-5-5-5-5-5-5-5-5-5
d------------------------------------------|
a------------------------------------------|
f------------------------------------------|
c----5-5-5-5-5-5-5-5--5-4-2-4---2p0--------|
g----5-5-5-5-5-5-5-5----------------0------|
C-0--5-5-5-5-5-5-5-5-----------------------|
Bridge
d---------------------------------------------------|
a---------------------------------------------------|
f---------------------0-----------------------------|
c--2--------------------------4-------------0-------|
g---------------------------------------------------|
C---------------------------------------------------|
Riff B
d-14h15p14--14h15p14--14h15p14--14h15p14--14h15p14--15p14--15p14--15p14--15p14--15p14h15-
a----------------------------------------------------------------------------------------
f----------------------------------------------------------------------------------------
c----------------------------------------------------------------------------------------
g----------------------------------------------------------------------------------------
C----------------------------------------------------------------------------------------
d-p14h15---|
a----------|
f----------|
c----------|
g----------|
C----------|
That's it.....Really easy song......have fun with it!!!!




Ваше мнение



Капча