Verse 1

Every day is a new day...
----------------------------------------------
----------------------------------------------
|--9-9-9-9-9---9-9-9-9p5-5-5-5p7-7-7-7---7-7-7-7p12-12-12-
|--9-9-9-9-9---9-9-9-9p5-5-5-5p7-7-7-7---7-7-7-7p12-12-12-
|--7-7-7-7-7---7-7-7-7p3-3-3-3p5-5-5-5---5-5-5-5p10-10-10-
----------------------------------------------

-----------||
-----------||
|-9-9-9-9--------------||
|-9-9-9-9--------------||
|-7-7-7-7--------------||
|-------0--------------||

Post-Chorus

-----------|---14p15p14--14p15p14--|
-----------------------|
--------0--------------|
|---5-4---4-2-0-----2--|---0p5-4---------------|
|-------5-----------2--------------|
--------0--------------|


I feel so alive! For the very first time! And I can´t deny you! I feel so alive! And I
think I can fly!
P.O.D.! Это же рульно!




Ваше мнение



Капча