all right i found a lot of tabs for this song and there mostly right but there are ezier ways of playin em. You got to listen to the song though cuz it's got some hard rythems aight

|-----------------------|
|-----------------------|
|-----------------------|
|-----------------------|
|----0-4-2-0--4-2-0-4---|
|-2-2-------------------|
intro

|------------------------------------------------------------------------------
|------------------------------------------------------------------------------
|----------2-------------------------------------------------------------------
|------2-----4----2-4----2-----------------------------------------------------
|---------------------------4----4-2-4----4-4-2----4-4-2----------4-2----------
|-2-2----------------------------------------------------5-2-2--------5-2-5-2--
play that over and over
I tried helping you out with the spacein but thats not the right rythem it just tell you what notes go togather
if you think you found a mistake email me
[email protected]




Ваше мнение



Капча