Tabbed By : MAD
e-mail: [email protected]
Tuning:
G|----------------------------------------------------------------------|
D|-------7-4--2--4--2---------------------------------------------------|
A|---------------------4-4-0-4--4---0-0-2-2-0-2-0-2---------------------|
E|-2-2------------------------------------------------------------------|
G|----------------------------------------------------------------------|
D|-------7-4--2--4--2---------------------------------------------------|
A|---------------------4-4-0-4--4---0-0-2-2-0-2-0-2---------------------|
E|-2-2------------------------------------------------------------------|

this song was easy it took tops 10 minutes i hope you like it




Ваше мнение



Капча