Artist: Puff Daddy
Song: Bad boy for life
Standard Tuning: E-A-D-G-B-E
Send any comments to [email protected]
Intro
E---------------------------------------------------------------------
B---------------------------------------------------------------------
G---------------------------------------------------------------------
D------0-------0------------------------------------------------------
A----1---3-1-----3-1--------------------------------------------------
E--3---------3-------3-3----------------------------------------------
Main Riff
E---------------------------------------------------------------------
B---------------------------------------------------------------------
G------3-0------------------------------------------------------------
D----------3-5--3-0---------------------------------------------------
A-------------------5-3-5---5-3-2-1--------5-3-1----------------------
E--3-3-------------------------------3-3---------3-1-3----------------




Ваше мнение



Капча