#----------------------------------PLEASE NOTE--------------------------------#
#This file is the author's own work and represents their interpretation of the#
#song. You may only use this file for private study, scholarship, or research.#
#-----------------------------------------------------------------------------#
#-- File created with Instab - http://www.pconline.com/~smcarey/instab.html --#
#-----------------------------------------------------------------------------#

Author/Artist: P Diddy
Title: Bad Boy For Life
Album: THe Saga Continues
Transcribed by: Bennie The Prodigy
Email: [email protected]

Intro leads into the verses.

-----------------------------|------------------------------------------------
-----------------------------|------------------------------------------------
-----------------------------|-------3-5--------------------------------------
-----------------------------|------------3-5--5-3----------------------------
----3-5-3-----5-3------------|---------------------5-3-5----------------------
--3-------5-3-----3----------|--3-3-------------------------------------------
Intro

------------------------------------------------------------------------------
------------------------------------------------------------------------------
------------------------------------------------------------------------------
------------------------------------------------------------------------------
---5-5-3----------5-3---------------------------------------------------------
----------5-3-3-------5-3-5-3-3-----------------------------------------------
Verse and Refrain repeat through the whole song.




Ваше мнение



Капча