ok guys heres the song i've seen many ways to play it but this is the easiest and correct way to do it.

Intro
|-------------------|
|-------------------|
|-------------------|
|-----------------3-|
|-----5-3-----5-3---|
|-3-6-----6-3-------|

Riff
|------------------------------------------------------------|
|------------------------------------------------------------|
|------------------------------------------------------------|
|------------------------------------------------------------|
|---------12-9-7-9--7-4--4-2-4--4-4-2-0------4-2-0---2-0-----|
|-3-3--12-------------------------------2-2--------2-----2-2-|

that is the whole song play the intro once at the beginning and then play the riff over and over through out the song. if ya'll have any questions or corrections you can email me at [email protected] Thanx!-Conner




Ваше мнение



Капча