Zombie Stomp
By: OZZY
tabbed by: [email protected]
Intro


Gtr I
PM------------------------------|
3x
||-----------------------------------||------------------------------------|
||o---------------------------------o||------------------------------------|
||-----------------------------------||------------------------------------|
||-----------------------------------||-x-x-x-x--x--x-x-x-x-x-x-x-x-x-x-x--|
||o---------------------------------o||------------------------------------|
||-----------------------------------||------------------------------------|
|
| Gtr III
| 3x
||-----------------------------------||------------------------------------|
||o---------------------------------o||------------------------------------|
||-----------------------------------||------------------------------------|
||--------------------------4-4------||---------------------------4-4------|
||o---------------------------------o||------------------------------------|
||--0h2-2-2-(2)-2-2-0-2-2-2-----2-2--||-0h2-2-2-(2)-2-2---0-2-2-2-----2-2--|
PM------------------------------------------------------------------|
|-----------------------------------|-----------------------------------|
|-----------------------------------|-----------------------------------|
|-----------------------------------|-----------------------------------|
|-4-4-4-4-----4-4-4-4-4-4-4-4-4-4-4-|-4-4-4-4-----4-4-4-4-4-4-4-4-4-4-4-|
|-----------------------------------|-----------------------------------|
|-----------------------------------|-----------------------------------|
|
|-----------------------------------|-----------------------------------|
|-----------------------------------|-----------------------------------|
|-----------------------------------|-----------------------------------|
|---------------------------4-4-----|---------------------------4-4-----|
|-----------------------------------|-----------------------------------|
|-0h2-2-2-(2)-2-2---0-2-2-2-----2-2-|-0h2-2-2-(2)-2-2---0-2-2-2-----2-2-|
PM------------------------------------------------------------------|
|-----------------------------------|-----------------------------------|
|-----------------------------------|-----------------------------------|
|-----------------------------------|-----------------------------------|
|-4-4-4-4--4--4-4-4-4-4-2-2-2-3-4-4-|-4-4-4-4-----4-4-4-4-4-4-4-4-4-4-4-|
|-----------------------------------|-----------------------------------|
|-----------------------------------|-----------------------------------|
|
|-----------------------------------|-----------------------------------|
|-----------------------------------|-----------------------------------|
|-----------------------------------|-----------------------------------|
|---------------------------4-4-----|---------------------------4-4-----|
|-----------------------------------|-----------------------------------|
|-0h2-2-2-(2)-2-2---0-2-2-2-----2-2-|-0h2-2-2-(2)-2-2---0-2-2-2-----2-2-|
PM--------------------------------------------------------------------|
8x
|-----------------------------------||-------------------------------------||
|-----------------------------------||o-----------------------------------o||
|-----------------------------------||-------------------------------------||
|-4-4-4-4--4--4-4-4-4-4-4-4-4-4-4-4-||--4-4-4-4-----4-4-4-4-4-4-4-4-4-4-4--||
|-----------------------------------||o-----------------------------------o||
|-----------------------------------||-------------------------------------||
|
| 8x
|-----------------------------------||-------------------------------------||
|-----------------------------------||o-----------------------------------o||
|-----------------------------------||-------------------------------------||
|---------------------------4-4-----||----------------------------4-4------||
|-----------------------------------||o-----------------------------------o||
|-0h2-2-2-(2)-2-2---0-2-2-2-----2-2-||--0h2-2-2-(2)-2-2---0-2-2-2-----2-2--||
PM---------------------------------
|-----------------------------------|
|-----------------------------------|
|-----------------------------------|
|-2-4-4-4-----4-4-4-4-4-2-2-2-3-4-4-|
|-----------------------------------|
|-----------------------------------|
|
|-----------------------------------|
|-----------------------------------|
|-----------------------------------|
|---------------------------4-4-----|
|-----------------------------------|
|-0h2-2-2-(2)-2-2---0-2-2-2-----2-2-|
|
| Gtr II
|-----------------------------------|
|-----------------------------------|
|-----------------------------------|
|-----------------------------------|
|-----------------------------------|
|-----------------------------------|
-----------------------------------------|
|-------------------------------------------|
|-------------------------------------------|
|-------------------------------------------|
|-2-4-4---4-----4---4-4-4-4-2---2-2-3---4-4-|
|-------------------------------------------|
|-------------------------------------------|
|
|-------------------------------------------|
|-------------------------------------------|
|-------------------------------------------|
|---------------------------------4-4-------|
|-------------------------------------------|
|-0h2-2---2-(2)-2---2---0-2-2---2-------2-2-|
|
|-------------------------------------------|
|-------------------------------------------|
|-------------------------------------------|
|-3-----3---------3-----3-----3-------3-----|
|-------------------------------------------|
|-------------------------------------------|
PM--------------------------------------------------------------------|
|-----------------------------------|-------------------------------------|
|-----------------------------------|-------------------------------------|
|---------------------------2-2-----|-----------------------------2-2-----|
|-2-4-4-4-----4-4-4-4-4-4-4-----4-2-|-2--4-4-4-----4-4-4-4--4-4-4-----4-2-|
|-----------------------------------|-------------------------------------|
|-----------------------------------|-------------------------------------|
|
|-----------------------------------|-------------------------------------|
|-----------------------------------|-------------------------------------|
|-----------------------------------|-------------------------------------|
|---------------------------4-4-----|-----------------------------4-4-----|
|-----------------------------------|-------------------------------------|
|-0h2-2-2-(2)-2-2---0-2-2-2-----2-2-|-0h=2-2-2-(2)-2-2---0--2-2-2-----2-2-|
|
| ~~~~~~~~~~~~~~~~~~~~~~
|-----------------------------------|-x----------------------------------|
|-----------------------------------|-x-----------------x---------------|
|-----------------------------------|-x-----------------x---------------|
|-----------------------------------|--------------------x---------------|
|-----------------------------------|-------------------------------------|
|-----------------------------------|-------------------------------------|
PM------------------------------------------------------------------|
|-----------------------------------|-----------------------------------|
|-----------------------------------|-----------------------------------|
|-----------------------------------|-----------------------------------|
|-4-4-4-4-----4-4-4-4-4-4-4-4-4-4-4-|-2-4-4-4-----4-4-4-4-4-2-2-2-2-2-2-|
|-----------------------------------|-----------------------------------|
|-----------------------------------|-----------------------------------|
|
|-----------------------------------|-----------------------------------|
|-----------------------------------|-----------------------------------|
|-----------------------------------|-----------------------------------|
|---------------------------4-4-----|---------------------------4-4-----|
|-----------------------------------|-----------------------------------|
|-0h2-2-2-(2)-2-2---0-2-2-2-----2-2-|-0h2-2-2-(2)-2-2---0-2-2-2-----2-2-|
PM------------------------------------------------------------------|
|-----------------------------------|-----------------------------------|
|-----------------------------------|-----------------------------------|
|-----------------------------------|-----------------------------------|
|-4-4-4-4-----4-4-4-4-4-4-4-4-4-4-4-|-4-4-4-4-----4-4-4-4-4-4-4-4-4-4-4-|
|-----------------------------------|-----------------------------------|
|-----------------------------------|-----------------------------------|
|
|-----------------------------------|-----------------------------------|
|-----------------------------------|-----------------------------------|
|-----------------------------------|-----------------------------------|
|---------------------------4-4-----|---------------------------4-4-----|
|-----------------------------------|-----------------------------------|
|-0h2-2-2-(2)-2-2---0-2-2-2-----2-2-|-0h2-2-2-(2)-2-2---0-2-2-2-----2-2-|
PM---------------------------------------------------------------------|
|-----------------------------------|--------------------------------------|
|-----------------------------------|--------------------------------------|
|-----------------------------------|--------------------------------------|
|-4-4-4-4-----4-4-4-4-4-2-2-2-3-4-4-|-4----4-4-4-----4-4-4-4-4-4-4-4-4-4-4-|
|-----------------------------------|--------------------------------------|
|-----------------------------------|--------------------------------------|
|
|-----------------------------------|--------------------------------------|
|-----------------------------------|--------------------------------------|
|-----------------------------------|--------------------------------------|
|---------------------------4-4-----|------------------------------4-4-----|
|-----------------------------------|--------------------------------------|
|-0h2-2-2-(2)-2-2---0-2-2-2-----2-2-|-0h===2-2-2-(2)-2-2---0-2-2-2-----2-2-|
|
| Gtr II
|-----------------------------------|--------------------------------------|
|-----------------------------------|--------------------------------------|
|-----------------------------------|-4pb5r======(4)p======2---------------|
|-----------------------------------|--------------------------------------|
|-----------------------------------|--------------------------------------|
|-----------------------------------|--------------------------------------|
PM-------------------------------------------------------------------|
|-------------------------------------|-----------------------------------|
|-------------------------------------|-----------------------------------|
|-------------------------------------|-----------------------------------|
|--4--4-4-4-----4-4-4-4-4-2-2-2-3-4-4-|-4-4-4-4-----4-4-4-4-4-4-4-4-4-4-4-|
|-------------------------------------|-----------------------------------|
|-------------------------------------|-----------------------------------|
|
|-------------------------------------|-----------------------------------|
|-------------------------------------|-----------------------------------|
|-------------------------------------|-----------------------------------|
|-----------------------------4-4-----|---------------------------4-4-----|
|-------------------------------------|-----------------------------------|
|--0h=2-2-2-(2)-2-2---0-2-2-2-----2-2-|-0h2-2-2-(2)-2-2---0-2-2-2-----2-2-|
|
|-------------------------------------|-----------------------------------|
|-------------------------------------|-----------------------------------|
|-(2)---------------------------------|-----------------------------------|
|-------------------------------------|-----------------------------------|
|-------------------------------------|-----------------------------------|
|-------------------------------------|-----------------------------------|
PM-------------------------------------
|---------------------------------------|
|---------------------------------------|
|-----------------------2b2.5-----------|
|-4-4-4-4-----4-4-4-4-4---------4-4-2-2-|
|---------------------------------------|
|---------------------------------------|
|
|---------------------------------------|
|---------------------------------------|
|---------------------------------------|
|-------------------------------4-4-----|
|---------------------------------------|
|-0h2-2-2-(2)-2-2---0-2-2-----2-----2-2-|
|
|---------------------------------------|
|---------------------------------------|
|---------------------------------------|
|---------------------------------------|
|---------------------------------------|
|---------------------------------------|
-------------------------------------|
|---------------------------------------|
|---------------------------------------|
|---------------------------------------|
|-4-4-4-4-----4-4-4--4----4-4-4-4-4-4-4-|
|---------------------------------------|
|---------------------------------------|
|
|---------------------------------------|
|---------------------------------------|
|---------------------------------------|
|-------------------------------4-4-----|
|---------------------------------------|
|-0h2-2-2-(2)-2-2----0----2-2-2-----2-2-|
|
|




Ваше мнение



Капча