YOU KNOW...(PART I)
Ozzy Osbourne
(From the 2001 Album DOWN TO EARTH)
Transcribed by Jibesh ([email protected])
Words and Music by Ozzy Osbourne and Tim Palmer

Gtr I (E A D G B E) - 'Electric Guitar Clean'
Gtr II (E A D G B E) - 'Acoustic Guitar'
Gtr III (E A D G B E) - 'Electric Guitar Clean'
x - on rhythm slash represents muted slash
n(n) - tapped harmonic
< - volume swell louder
Intro

Dsus2 Cadd11/D Dsus2 Cadd11/D

Gtr I

|----------|-0-0-0-0-----0-(0)-0-------|-0-0-0-0-----0-(0)-0-------|
|----------|-3-3-3-3-x-x-6-(6)---6-----|-3-3-3-3-x-x-6-(6)---6-----|
|----------|-2-2-2-2-x-x-5-(5)-----5---|-2-2-2-2-x-x-5-(5)-----5---|
|----------|-0-0-0-0-----0-(0)-------0-|-0-0-0-0-----0-(0)-------0-|
|----------|---------------------------|---------------------------|
|----------|---------------------------|---------------------------|
Verse
Dsus2 Cadd11/D Dsus2 Cadd11/D D F#m/D
Gtrs I, II

|-0-0-0-0-----0-(0)-0-------|-0-0-0-0-----0-(0)-0-------||-2--2--2-2-2-------2-|
|-3-3-3-3-x-x-6-(6)---6-----|-3-3-3-3-x-x-6-(6)---6-----||-3--3--3-3-3-------2-|
|-2-2-2-2-x-x-5-(5)-----5---|-2-2-2-2-x-x-5-(5)-----5---||-2--2--2-2-2---(0)-2-|
|-0-0-0-0-----0-(0)-------0-|-0-0-0-0-----0-(0)-------0-||-0--0----0-0-0-----0-|
|---------------------------|---------------------------||---------------------|
|---------------------------|---------------------------||---------------------|
Gm/D F#m/D

|-(2)---2-2-(2)-2-2-2-x-x-|-3--3---3-5-3-x-x-2-|-(2)---2-2-(2)-2-2-2-2---0-|
|-(2)---2-2-(2)-2-2-2-x-x-|-3--3---3-3-3-x-x-2-|-(2)---2-2-(2)-2-2-2-2-0-0-|
|-(2)-2-2-2-(2)-2-2-2-x-x-|-3--3---3-3-3-x-x-2-|-(2)-2-2-2-(2)-2-2-2-2-0-0-|
|-(0)-0-0-0-(0)-0-0-------|-0--0-0---0-0-0---0-|-(0)-0-0-0-(0)-0-0-0-0-0---|
|-------------------------|--------------------|---------------------------|
|-------------------------|--------------------|---------------------------|
D F#m/D Gm/D F#m/D

|-2---2--2-2-2-------2-|-(2)---2-2-(2)-2--2-2-x-x-|---3--3---3--5--3-x-x-2-|
|-3---3--3-3-3-------2-|-(2)---2-2-(2)-2--2-2-x-x-|---3--3---3--3--3-x-x-2-|
|-2---2--2-2-2---(0)-2-|-(2)-2-2-2-(2)-2--2-2-x-x-|---3--3---3--3--3-x-x-2-|
|-0---0----0-0-0-----0-|-(0)-0-0-0-(0)-0--0-------|---0--0-0----0--0-0---0-|
|----------------------|--------------------------|------------------------|
|----------------------|--------------------------|------------------------|
|
| Gtr III
|
|----------------------|--------------------------|------------------------|
|----------------------|--------------------------|------------------------|
|-2------------2-------|--------------------------|------------------------|
|---4-4--------------4-|-(4)-----2-(2)-0----------|-0h2--0-----(0)-0-----4-|
|----------------------|--------------------------|------------------------|
|----------------------|--------------------------|------------------------|
Chorus
Em A

|-(2)---2-2-(2)-2-2-2-2---0-||-----0--0---------0---|-------------------------|
|-(2)---2-2-(2)-2-2-2-2-0-0-||-----0--0---------0-2-|-(2)-------------2-2-0-0-|
|-(2)-2-2-2-(2)-2-2-2-2-0-0-||--0--0--0---------0-2-|-(2)-------------2-2-0-0-|
|-(0)-0-0-0-(0)-0-0-0-0-0---||--2--2----------0---2-|-(2)-2-2-2-(2)-2-2-2-0-0-|
|---------------------------||--2--2-----2--2-0---0-|-(0)-0-0-0-(0)-0-0-0-0-0-|
|---------------------------||--0--0-----0--0-------|-------------------------|
|
|




Ваше мнение



Капча