Tablature explanation:
h= Hammer on
/=slide to
b=bend
Intro (play twice)
|--------------------------------------------------------------------------|
|--------------------------------------------------------------------------|
|--------------------------------------------------------------------------|
|-9-9-9-7-9-----7-9-----9-9-9-7-9-----7-9----------------------------------|
|-7-7-7-----7-9-----7-9-7-7-7-----7-9-----7-9------------------------------|
|--------------------------------------------------------------------------|
Verse
|--------------------------------------------------------12h13-------------|
|--------------------------------------------------------------------------|
|-------------------------------------------------7------------------------|
|-7-7--9--7-7--9--7-7--9--7-9-----7-7--9--7-7--9--5-7-9--------------------|
|-5-5--7--5-5--7--5-5--7-----7-9--5-5--7--5-5--9----5-7--------------------|
|--------------------------------------------------------------------------|
|--------------------------------------------------------------------------|
|--------------------------------------------------------------------------|
|-------------------------------------------------7------------------------|
|-7-7--9--7-7--9--7-7--9--7-9-----7-7--9--7-7--9--5-7-9--------------------|
|-5-5--7--5-5--7--5-5--7-----7-9--5-5--7--5-5--9----5-7--------------------|
|--------------------------------------------------------------------------|
Post verse
|----------------16-18-16--------------------------------------------------|
|-------------------------15/9---------------------------------------------|
|--------------------------------------------------13/1--------------------|
|-9b-5---7--9b------------------9b-5--7--9b--------------------------------|
|-7--3---5--7-------------------7--3--5--7---------------------------------|
|--------------------------------------------------------------------------|
|--------------------------------------------------------12h13-------------|
|--------------------------------------------------------------------------|
|-------------------------------------------------7------------------------|
|-7-7--9--7-7--9--7-7--9--7-9-----7-7--9--7-7--9--5-7-9--------------------|
|-5-5--7--5-5--7--5-5--7-----7-9--5-5--7--5-5--9----5-7--------------------|
|--------------------------------------------------------------------------|
|--------------------------------------------------------------------------|
|--------------------------------------------------------------------------|
|-------------------------------------------------7------------------------|
|-7-7--9--7-7--9--7-7--9--7-9-----7-7--9--7-7--9--5-7-9--------------------|
|-5-5--7--5-5--7--5-5--7-----7-9--5-5--7--5-5--9----5-7--------------------|
|--------------------------------------------------------------------------|
Chorus
|--------------------------------------------------------------------------|
|--------------------------------------------------------------------------|
|--------------------------------------------------------------------------|
|-9b--------------5--------------------7-----------------------------------|
|-7---------------3--------------------5-----------------------------------|
|--------------------------------------------------------------------------|
|--------------------------------------------------------12h13-------------|
|--------------------------------------------------------------------------|
|-------------------------------------------------7------------------------|
|-7-7--9--7-7--9--7-7--9--7-9-----7-7--9--7-7--9--5-7-9--------------------|
|-5-5--7--5-5--7--5-5--7-----7-9--5-5--7--5-5--9----5-7--------------------|
|--------------------------------------------------------------------------|
|--------------------------------------------------------------------------|
|--------------------------------------------------------------------------|
|-------------------------------------------------7------------------------|
|-7-7--9--7-7--9--7-7--9--7-9-----7-7--9--7-7--9--5-7-9--------------------|
|-5-5--7--5-5--7--5-5--7-----7-9--5-5--7--5-5--9----5-7--------------------|
|--------------------------------------------------------------------------|
SOLO
|--------12-------12-------12-------12-------12----|
|-----12-------12-------12-------12-------12-------|
|--14b------14b------14b------14b------14b------14b|
|--------------------------------------------------|
|--------------------------------------------------|
|--------------------------------------------------|

|-----12-------12-------------------13----------14-|
|--12-------12-------12-15-12----13----16-13-------|
|--------14b------14----------15-------------16----|
|--------------------------------------------------|
|--------------------------------------------------|
|--------------------------------------------------|

|--------------15----------12--14--|
|--17-14----15-----17--------------|
|--------17------------------------|
|----------------------------------|
|----------------------------------|
|----------------------------------|

|--16-12-16-16-15-14-12-14-15-14-12-14-15-14-17-14-|
|--------------------------------------------------|
|--------------------------------------------------|
|--------------------------------------------------|
|--------------------------------------------------|
|--------------------------------------------------|

|--15-14-12-14-15p14-17p14/15-------22-18h19p18-20-|
|-----------------------------15h18----------------|
|--------------------------------------------------|
|--------------------------------------------------|
|--------------------------------------------------|
|--------------------------------------------------|

|--18----------------------------------------------|
|-----20-18h19p18----18----------------------------|
|-----------------20----20-18----18----------------|
|-----------------------------20----20-18----18----|
|-----------------------------------------21----21-|
|--------------------------------------------------|

|--------------------------------|------------------------------------|
|--------------------------------|------------------16b-0----12----15-|
|-----2b-4p-2--10t2--9t2-0-2-0-2-|--14-17p14-----12-15b-0-12----12----|
|--------------------------------|------------------------------------|
|--20---------------------------|------------------------------------|
|--------------------------------|------------------------------------|

|--12-15-12-14-12-15-12----------------------------|
|-----------------------15-12-12-13-12----12-------|
|--------------------------------------15----13-11-|
|--------------------------------------------------|
|--------------------------------------------------|
|--------------------------------------------------|

|------------------------------------------|------------------------------|
|------------------------------------------|----------------7-8-10-10b----|
|----11------------------------------------|----4-5-7-6-7-9---------------|
|-14----14-11-12-11-14-11-14-16--------4-5-|--7---------------------------|
|--------------------------------4-5-7-----|------------------------------|
|-----------------------------------------|---------------------------12/-|

|--------------------------------------------------------12h13-------------|
|--------------------------------------------------------------------------|
|-------------------------------------------------7------------------------|
|-7-7--9--7-7--9--7-7--9--7-9-----7-7--9--7-7--9--5-7-9--------------------|
|-5-5--7--5-5--7--5-5--7-----7-9--5-5--7--5-5--9----5-7--------------------|
|--------------------------------------------------------------------------|
|--------------------------------------------------------------------------|
|--------------------------------------------------------------------------|
|-------------------------------------------------7------------------------|
|-7-7--9--7-7--9--7-7--9--7-9-----7-7--9--7-7--9--5-7-9--------------------|
|-5-5--7--5-5--7--5-5--7-----7-9--5-5--7--5-5--9----5-7--------------------|
|--------------------------------------------------------------------------|
Post verse
|----------------16-18-16--------------------------------------------------|
|-------------------------15/9---------------------------------------------|
|--------------------------------------------------13/1--------------------|
|-9b-5---7--9b------------------9b-5--7--9b--------------------------------|
|-7--3---5--7-------------------7--3--5--7---------------------------------|
|--------------------------------------------------------------------------|
|--------------------------------------------------------12h13-------------|
|--------------------------------------------------------------------------|
|-------------------------------------------------7------------------------|
|-7-7--9--7-7--9--7-7--9--7-9-----7-7--9--7-7--9--5-7-9--------------------|
|-5-5--7--5-5--7--5-5--7-----7-9--5-5--7--5-5--9----5-7--------------------|
|--------------------------------------------------------------------------|
|--------------------------------------------------------------------------|
|--------------------------------------------------------------------------|
|-------------------------------------------------7------------------------|
|-7-7--9--7-7--9--7-7--9--7-9-----7-7--9--7-7--9--5-7-9--------------------|
|-5-5--7--5-5--7--5-5--7-----7-9--5-5--7--5-5--9----5-7--------------------|
|--------------------------------------------------------------------------|
Outro
|--------------------------------------------------------16h17-------------|
|--------------------------------------------------------------------------|
|-------------------------------------------------7------------------------|
|-7-7--9--7-7--9--7-7--9--7-9-----7-7--9--7-7--9--5-7-9--------------------|
|-5-5--7--5-5--7--5-5--7-----7-9--5-5--7--5-5--9----5-7--------------------|
|--------------------------------------------------------------------------|
|--------------------------------------------------------------------------|
|--------------------------------------------------------------------------|
|--------------------------------------------------------------------------|
|-7-7--9--7-------7-7--9--7-9-----7-7--9--7-7--9---------------------------|
|-5-5--7--5--9-7--5-5--7------7-9-5-5--7--5-5--7---------------------------|
|------------7-5-----------------------------------------------------------|




Ваше мнение



Капча