=== Crankster's Ozzy Page
=== http://crankster.cjb.net
=== [email protected]
Transcriber - Ryan Silke
Spiders In The Night
Ozzy Osbourne- Bark At The Moon
This is a real groovy song to play. Incorporate many slides.
Also, lots of slapping and harmonics are used in the high notes.
Intro
G-------------------------------------------------
D-------------------------------------------------
A-------------------------------------------------
E--0---0----0-0-0---0--0---0-0-0-0--0-0-0--0--0---
G---------------------------------------------------
D---------------------------------------------------
A---------------------------------------------------
E--0--0-0----0-0-0---0--0---0--0--0-0-0--/7--6--5--
Pre-Verse and Verse
G-----------------|---------------|
D-----------------|---------------|
A------/7--------|--insert fill--|
E--0---------0-0--|---------------|
Pre-Verse Fills (in order of song)
G------------|-----------|----------|----------|
D------------|--5--------|----------|----------|
A-----5--7--|----5--7--|--5-2-----|----------|
E--/7--------|-----------|------3--|--7-6-5--|
Verse Fills
G-----------|-------------|------------------------------------------
D--5--------|-------------|---------------------------------5--4-----
A----5--7--|-----10--7--|--5--5--5--5------------------3--------5--
E-----------|--/7---------|--------------5-0-5-0-5-0-5--------------
G-----------|-------------|------------------------------------------
D--5--------|--/9---------|---------------------------------5--4-----
A----5--7--|-----10--7--|--5--5--5--5------------------3--------5--
E-----------|-------------|--------------5-0-5-0-5-0-5--------------

Chorus
G-----------------------------------------------
D----------/5-4-------------------/7--5---------
A--3---3---------3----3--2---2----------2----2--
E-------------------3----------------------2----
G---------------------/14----------
D-------------------------12-------
A--3--3--3--3--5--5----------------
E-----------------------------12--
Pre-Verse Fills
G----------|-----------|------------|----------/12--|
D--5-------|-----------|------------|--/9--12--------|
A----5--7--|--5--2-----|------------|----------------|
E----------|-------3--|--7--6--5--|----------------|

Verse Fills
G-------------|-----------|------------------------------------------
D--/9---------|-----------|---------------------------------5--4-----
A-----10--7--|-----5-7--|--5--5--5--5------------------3--------5--
E-------------|--/7-------|--------------5-0-5-0-5-0-5--------------
repeat Chorus

Interlude x 2
G----------------------------------------------------
D----------9----------9-----------9----------9---
A----------------------------------------------------
E--7-7-7------7-7-7-------7-7-7------7-7-7-------
G----------------------------------------------------
D----------7----------7----------7-----------7---
A----------------------------------------------------
E--5-5-5------5-5-5------5-5-5-------5-5-5-------
repeat Chorus
repeat Pre-Verse
Pre-Verse Fills { slapping technics }
G------------|-----------|----------12--|----------------|
D------------|--5--------|--/9--12-------|--/17-----------|
A-----5--7--|----5--7--|---------------|------17--10--|
E--/7--------|-----------|---------------|----------------|
repeat Verse
Verse Fills
G------------|-----------|------------------------------------------
D------------|--5--------|---------------------------------5--4-----
A------------|----7--7--|--5--5--5--5------------------3--------5--
E--7--6--5--|-----------|--------------5-0-5-0-5-0-5--------------

G------------|-----------|------------------------------------------
D------------|--5--------|---------------------------------5--4-----
A--------7--|----5--7--|--5--5--5--5------------------3--------5--
E--7--7------|-----------|--------------5-0-5-0-5-0-5--------------

repeat Chorus
Pre-Outro Fills
G----------------|-----------|---------12--
D----------------|--5--------|------12------
A-----/7--------|----5--7--|--------------
E--0--------0-0--|-----------|--/10---------

Outro
G-------------------|---------------|
D-------------------|---------------|
A------/7----------|--insert fill--|
E--0---------0-0-0--|---------------|

Outro Fills
G------------|-----------|--19------------|-------------
D--/8--------|-----------|-----17-19------|--9---------
A-----10--7--|----5--7--|-----------17--|-----10--7--
E------------|--7--------|----------------|-------------

G------------|------------|------12--14--19-- fades out
D------------|------------|--/14--------------
A--5---------|--5---------|-------------------
E-----7--3--|----7-6-5--|-------------------




Ваше мнение



Капча