Ozzy Osbourne
Shot in the Dark
Tuning F#,B,D,G,B,E
Distorted
Prelude
|----------------------|-----------------------|----------------------|
|--12----7---5b--------|--(5)---(5)------------|-3b--(3)-3-(3)-(3)-(3)|
|----------------------|-----------------------|----------------------|
|----------------------|-----------------------|----------------------|
|----------------------|-----------------------|----------------------|
|----------------------|-----------------------|----------------------|

|----------------------|---5-------------------|--12------------------|
|----12---7-----5------|--(5)------------------|--12------------------|
|----------------------|-----------------------|--12------------------|
|----------------------|-------------------12--|--12------------------|
|----------------------|----------------12-----|-(12)-------- x-------|
|----------------------|-----------------------|-(12)---------x-------|
Intro
P.M.---- P.M.------------- P.M.--- P.M.----
|----------------------|-----------------------|----------------------|
|----------------------|-----------------------|----------------------|
|-7------------6-------|---------------------7-|--------6-------------|
|-7------------7-------|---------------------7-|--------7-------------|
|-----0---0------------|-0---0----------0------|--0--0---------0---0--|
|----------------------|---------0---3---------|----------------------|
P.M.--- P.M.---- P.M.-------
|----------------------|-----------------------|----------------------|
|----------------------|-----------------------|----------------------|
|------------7---------|---------6---(6)s2-----|--4-(4)---------------|
|------------5---------|---------5---(5)s2h5---|--5-(5)p0--5----------|
|----------------------|--0---0----------------|--------------5---0---|
|---0---3--------------|-----------------------|----------------------|
P.M.------- P.M. P.M.----- P.M. P.M.-----
|----------------------|-----------------------|----------------------|
|----------------------|-----------------------|----------------------|
|---------------7------|--------6--------------|-7--------6-----------|
|---0--2--0b----7------|--------7--------------|-7--------7-----------|
|----------------------|0---0--------0--0-----0|----0--0-----O--O-----|
|----------------------|------------------0--3-|------------------O--3|
P.M.
|----------------------|-----------------------|----------------------|
|----------------------|--------------------5b-|-(5)----5b---(5)--(5)-|
|----7---------6-------|(6)s2------4-----------|----------------------|
|----5---------5-------|(5)s2h5----5-----------|----------------------|
|-O-----0---0----------|-----------------------|----------------------|
|----------------------|-----------------0-----|----------------------|
Verse
let ring----------------------------------------------------------
|------------------2---|-----------------------|-----------------0----|
|-----------2----------|-------------2--------2|-----------------0----|
|--------4-------------|--------4--------4-----|----2--------4--------|
|-----4----------------|----4------------------|----------5-----------|
|--0-------------------|-0---------------------|-------0--------------|
|----------------------|-----------------------|----------------------|
let ring---------------------------------------------------------
|--------------------0-|---------------2-------|----------------------|
|------------2---------|2--------------2-------|------2-----2---------|
|--------4--------4----|-----------4-----------|---4-----4------2-----|
|-----5----------------|--------4--------------|4---------------------|
|--0-------------------|-----0-------------0---|----------------------|
|----------------------|-----------------------|----------------------|
let ring----------------------------------
|-----------0----------|--------------0--------|
|-----------0----------|----2-----2------2-----|
|-------4--------------|4------4---------------|
|----5--------------5--|-----------------------|
|-0-------------0------|-----------------------|
|----------------------|-----------------------|

Pre-Chorus
-P.M.- P.M.-
|----------------------|-----------------------|----------------------|
|----------------------|-----------------------|----------------------|
|--7-----------6-------|---7------X--X---7-----|--------6-------------|
|--5-----------5-------|---5------X--X---5-----|--------5-------------|
|------0---0-----------|-----------------------|0---0-----------------|
|----------------------|-----------------------|----------------------|
Let ring----------
|----------------------|-----------------------|--0-------------------|
|----------------------|-----------------------|----------------------|
|--7------X--X-------7-|--6-------7-------7----|-------6-------7------|
|--5------X--X---------|-----------------------|----------------------|
|----------------------|-----------------------|----------------------|
|----------------------|-----------------------|----------------------|
P.M.-- P.M. P.M.---
|----------------------|-----------------------|----------------------|
|----------------------|-----------------------|----------------------|
|---7---------6-----4--|-X-X----9----------6---|-4---X-X--7---------6-|
|---4---------4-----4--|-X-X----4----------4---|-4---X-X--5---------5-|
|------0---0-----------|------------0--0-------|-------------0---0----|
|----------------------|-----------------------|----------------------|
Let ring------ ------------- --------
|-----------------0----|--------------------0--|-----------0-----0----|
|----------------------|-----------------------|----------------------|
|-7---X-X-----7--------|6-----4---------9----6-|----4---7----6------7-|
|-5---X-X--------------|-----------------------|----------------------|
|----------------------|-----------------------|----------------------|
|----------------------|-----------------------|----------------------|
P.M.-- P.M.---
|----------------------|-----------------------|----------------------|
|----------------------|-----------------------|----------------------|
|--7---------6------7--|X-X----7----------6----|--4----6--------------|
|--5---------5------5--|X-X----4----------4----|--4----4----------X---|
|-----0---0------------|-----------------------|----------------------|
|----------------------|-----------0----0------|----------------------|
Let Ring------------
|------O------0--------|-----------------------|
|----------------------|------7-------7--------|
|----------------------|------------------6----|
|--7-------6------6----|--4-------------------4|
|----------------------|-----------------------|
|----------------------|-----------------------|

Chorus
P.M. P.M
|----------------------|-----------------------|----------------------|
|----------------------|-----------------------|----------------------|
|---4------------X-9p7-|-------7--6------------|----------------------|
|---4--------------7---|-------7-(7)-----------|----------------------|
|---0------------------|--0--------------------|12--X---12------7----7|
|----------------------|-----------------0-----|10------10------5----5|
P.M.
|----------------------|-----------------------|----------------------|
|----------------------|-----------------------|----------------------|
|----------------------|--4--------------------|-9p7--9--9/11-------7-|
|----------------------|--4--------------------|-7----7--7/9--------7-|
|-X---8---8----------0-|--0--------------------|---------------0------|
|-----6---6----0h3-----|-----------------------|----------------------|

|----------------------|-----------------------|----------------------|
|----------------------|-----------------------|----------------------|
|----------------------|-----------------------|----------------------|
|----------------------|-----------------------|----------------------|
|-12-------X---10------|(10)/----7----7-----X--|-8---8----------------|
|-10------------8------|(8)/-----5----5--------|-6---6----------------|
Fill (only 2nd and 3rd time)
P.M.
|----------------------|-----------------------|
|----------------------|-----------------------|
|--4-----------4/7-----|-9p7---------7/6-------|
|--4-----------4/7-----|-7-----------7/7-------|
|--0-------------------|--------0--------------|
|----------------------|---------------------0-|
P.M.---- P.M. P.M. P.M.
|----------------------|-----------------------|----------------------|
|----------------------|-----------------------|----------------------|
|----------------------|-4-------------9/11----|-------9------7-------|
|----------------------|-4-------------7/9-----|-------7------7-------|
|--X-8---8--------0h3--|-0---------------------|-0--0----0--0----0--0-|
|----6---6----0h3------|-----------------------|----------------------|
P.M. P.M.--------
|----------------------|-----------------------|----------------------|
|----------------------|-----------------------|----------------------|
|---9/11---------------|-----------------------|----------------------|
|---7/9----------------|-----------------------|----------------------|
|---------O--O------12-|X---10--10/---7----7---|-X--8-----------------|
|-------------------10-|-----8--8/----5----5---|----6-----6--6--6--6--|

Interlude
w/slide
P.M. P.M.-- P.M.--
|----------------------|-----------------------|----------------------|
|-----------7-----10s7-|----------8s7----------|------8s5--------7s5--|
|----------------------|--7-------------7------|-(0)-------5----------|
|----------------------|-----7-------------7---|--------------5-------|
|----------------------|-----------------------|----------------------|
|----------------------|-----------------------|----------------------|

|----------------------|-----------------------|----------------------|
|--5-------------------|----7----10s7----------|--8s7-----------------|
|-----5----------------|----------------7------|------7-------(0)-----|
|----------------------|--------------------7--|----------7-----------|
|----------------------|-----------------------|----------------------|
|----------------------|-----------------------|----------------------|

|----------------------|-----------------------|
|--8s5-----------------|7s5--------------------|
|--------5-------------|-----5-----------------|
|------------5---------|---------5-------------|
|----------------------|-----------------------|
|----------------------|-----------------------|

Solo
(w/out slide)
|-----------------7----|----------7------------|----------------------|
|--10b----(10)------10-|-7--10b------10p7------|-7--7h8p7--------7----|
|----------------------|--------------------9b-|-----------9b---------|
|----------------------|-----------------------|----------------------|
|----------------------|-----------------------|----------------------|
|----------------------|-----------------------|----------------------|

|----------------------|-----------------------|----------------------|
|--10p9p7------7-------|-----------------------|----------------------|
|----------9-------9b--|--9--6---------6-------|----------------------|
|----------------------|---------9--7-----7----|--7h9-----------------|
|----------------------|--------------------7--|-------5---5s7--------|
|----------------------|-----------------------|----------------------|
|----------------------|-----------------------|----------------------|
|----------------------|-----------------------|----------10p7----7---|
|------------------9p6-|----6--------11p7-----7|------7---------7-----|
|----------5h7--7------|-7-----7--7--------9---|-7s9------------------|
|-7s10s7---------------|-----------------------|----------------------|
|----------------------|-----------------------|----------------------|

|----------------------|
|----------------------|
|--7h9b--(9)--(9)------|
|----------------------|
|----------------------|
|----------------------|
(trill- fast hammer-on pull-off combination)
|-2h10p2-3h10p3-5h10p5-|7h10p7-5h10p5-3h10p3---|7h14p7-9h14p9-10h14p10|
|----------------------|-----------------------|----------------------|
|----------------------|-----------------------|----------------------|
|----------------------|-----------------------|----------------------|
|----------------------|-----------------------|----------------------|
|----------------------|-----------------------|----------------------|
|-12h14p12-------------|
|----------------------|
|----------------------|
|----------------------|
|----------------------|
|----------------------|

CODA
Fill 1
P.M.--------------
|----------------------|-----------------------|
|----------------------|-----------------------|
|-4--------------------|-----------------------|
|-5p0--5----------0---2|0b---------------------|
|---------5---0--------|-----------------------|
|----------------------|-----------------------|
Fill 2
let ring
|----------------------|-----------------------|
|--------------3-------|-5---------------------|
|---4---2s4--------4s6-|----6s4--4p3-----------|
|---5------------------|-----------------------|
|----------------------|-----------------------|
|----------------------|-----------------------|
Fill 3
|----------------------|---------------------4-|----------------------|
|---------12p11p10-9---|-10-9p8p7---5h6h7h8----|----------------------|
|----4-----------------|-----------------------|7b(.5)----------------|
|----5-----------------|-----------------------|----------------------|
|----------------------|-----------------------|----------------------|
|----------------------|-----------------------|----------------------|




Ваше мнение



Капча