song: rock in roll rebal
artist: ozzy osbourne
Tabed by: Brian Elkins
note: I don`t Know the solos yet. The bridge, and rythem for the main solo are
prety easy. so you should have no problem lerning it by ear.

Intro
p.m.-- p.m.-- p.m. p.m.-- p.m.-- p.m.- p.m.-
-------------------------------------------------------------------------------
-------------------------------------------------------------------------------
--2--------4--------6-----2--------4--------6----------------------9-11-11-----
--2--------2--------4-----2--------2--------4-------2--4-4---------9-11-11-----
----------------------------------------------------2--4-4---------7--9-9------
-----2--2-----2--2-----2-----2--2-----2--2-----0-0--0--2-2----0-0--------------
p.m.-- p.m.-- p.m. p.m.-- p.m.-- p.m.- p.m.--
-------------------------------------------------------------------------------
--------------------------3----------------------------------------------------
--2--------4--------6-----2--------6--------4--x-x--2-------------9-11-11------
--2--------2--------4-----2--------4--------2--x-x--2--4-4--------9-11-11------
-----------------------------------------------x-x--0--4-4--------7--9-9-------
-----2--2-----2--2-----2-----2--2-----2--2-------------2-2---0-0---------------
verse pre chorus
p.m.--
-------------------------------------------------------|----3----3-------------
-------------------------------------------------------|----3----0-------------
-----------2------4------7--------------------9--11-11-|----0----0-------------
---4-------2------4------7---2---4--4---------9--11-11-|----0----0-------------
---4-------0------2------5---2---4--4---------7---9--9-|----2----2-------------
---2-------------------------0---2--2---0-0------------|----3----3-------------
p.m.----------------------
-------------------3-----3-----------------------------------------------------
----3----2---------3-----0-----------------------------------------5-----------
----2----2---------0-----0----------2--2--2--2--2--2--2--2------5--------------
----2----2---------0-----0----------2--2--2--2--2--2--2--2------------7--------
----0----0---------2-----2----------0--0--0--0--0--0--0--0---3--------5--------
-------------------3-----3-----------------------------------------------------
chorus
p.m.------- p.h~~~ p.m.------
-------------------------------------------------------------------------------
-------------------------------------------------------------------------------
--4-------------4--4-----9--7--6--7-----6------4------------4--4----7--6-------
--2-------------2--2-----------------------7---2------------2--2----------7----
-------------------------------------------------------------------------------
-----0-0-0--0-0----------------------------------0-0-0--0-0-----------------0--
p.m.---- p.m.- p.m. p.m.- p.m.---- pm.-
-------------------------------------------------------------------------------
-------------------------------------------------------------------------------
--------------------4------7--2----9------7------------4------4----7--6--------
--------------------2------5--0----9------7------------2------2----------7-----
--5---7------------------------------------------------------------------------
--3---5-----0--0-0-----0-0------0-----0-0------0--0-0-----0-0---------------0--
p.m.----- p.m.- p.m.----------------
-------------------------------------------------------------------------------
-------------------------------------------------------------------------------
-------------------4------7--2---2--2--2--2--2--2--2---------------------------
-------------------2------5--0---0--0--0--0--0--0--0---------------------------
--5---7------------------------------------------------------------------------
--3---5----0--0-0----0-0-------------------------------------------------------




Ваше мнение



Капча