Date: Wed, 28 Jun 1995 20:12:53 -0500 (CDT)
From: Matt J Seifert
Subject: TAB: Ozzy Osborne "Road to Nowhere" (fwd)
ROAD TO NOWHERE
---------------
-from the multi-platinum album "No More Tears"
-words and music by Ozzy Osborne, Zakk Wylde, Randy Castillo
-transcription by Carl Culpepper
I AM LEGEND:
H=HAMMER
P=PULL-OFF
\=SLIDE DOWN
^=VIBRATO
tr^=TRILL
B=BEND(assume full bend if not noted)
.=palm mute
Tune down 1/2 step
(let ring throughout)
--------2---------------------------3---------------------------------
----3-----3-----------2---------------3-------------------------0-----
------2-----2-----2-----2-------0-------0---------0---------------0---
--0-----------------2-----2-------0-----------0-------------2---------
---------------0--------------------------0-2---2-------------2-------
------------------------------3-----------------------3-2-0-----------
------------3--------------------------------------
--------3-----3------------2-------3-------2-------
----------0-----0------2-----2-------2-------2-----
------------------0------2-----2-2-----2-------2---
---------------------0-------------------0-------0-
--0-2-3--------------------------------------------
. . . . . . . . . . . . . . .
intro solo
^^ ^^ ^^^^^
-----------------------P-------------------------------------------
---H--P-----B------22-19---B---B---------------------------B-------
-19-21-19--21(21)---------21--21(21)19-------H-19---19----21(21)19-
-----------------------------------------19-21---------21----------
-------------------------------------------------------------------
-------------------------------------------------------------------
^^^ ^^^ ^^^ ^^^ ^^^
----H----------------------------------------------------------------
19-20---19--------------B---22-B--22-B------------------H--P---B-----
-------------21---19---21-----21----21--------------19-21-19--21(21)-
--------------------------------------------H-19-21------------------
----------------------------------------19-21------------------------
---------------------------------------------------------------------
^^^ ^^^ ^^^ ^^^
--B----------P--12-----------------------------H------------------
-20(20)--20-19------B---22-B---22-B--------19-20---19-------------
-------------------21-----21-----21(21)19---------------21---19---
------------------------------------------------------------------
------------------------------------------------------------------
------------------------------------------------------------------
tr^^^^^^^^^^^^^^^^^^^^^^^^^^^^^^^^^^^^^^^^^^^^^^^
-------------------------------------------------------
-(14-15)14\-----(12-14)12\-----(10-12)10\-----(8-10)8--
-(12-14)12\-----(11-12)11\-----(-9-11)-9\-----(7--9)7--
-------------------------------------------------------
-------------------------------------------------------
-------------------------------------------------------
^^^^^^ ^^^^^^ ^^^^^^ ^^^^ ^^^^^^^^^^^^^^^^^^^^^^^^
------------------------------||--------------------------
--\7-------\5------\3------\2-||--3-----------------------
--\6-------\4------\2------\0-.|--------------------------
------------------------------.|--4-----------------------
------------------------------||--------------------------
------------------------------||--------------------------
(return to start) (fill)
------------------------B10-B10-B10-B10(10)\--------------
------------------------9---9---9---9--(-9)\--------------
-------------------------------------------------5-----5--
-------------------------------------------------5-----5--
----------------------------------------------3-----3--3--
----------------------------------------------------------
. .
searching for the key. the wreckage of
P.H.^^^^
---------------------------------------------------------
-------------------3-------------------------------------
-------------------2--5--4---------------------5-----5---
-------------------0--5--4--2------3(.5)-------5-----5---
-------------------0--3--2--0-----------5---3-----3--3---
-3-0-2-3--5-0-2-3--------------3-0-----------------------
. . . . . . . . . . . .
of my past keeps me it just
-----------------------0---------------------------------------------
--------------------3--3---3---------------------------------3-------
--------------------2--2---2-----5-----5---------------------2--5--4-
--------------------0--0---0-----5-----5---------------------0--5--4-
-------------------------------3----3--3---------------------0--2--2-
--3-0-2-3--5-0-2-3-------------------------3-0-2-3--5-0-2-3----------
. . . . . . . . . . . . . . . . . .
leave me alone I still find it all mystery
-------------3----------------------------------
------3------3-------------------------------3--
------0---2--0-------------------------------2--
--2---0---2--0--------------5-5-5-4--4-4-2-2-0--
--0-------0-------------------------------------
------3------3---------------------------------- (next solo)
be a dream? the road to nowhere
-basically all the riffs are here, only intro solo is included




Ваше мнение



Капча