+----------------------------------PLEASE NOTE-----------------------------+
This file is the author's own work and represents their interpretation of the song.
You may only use this file for private study, scholarship, or research.
+--------------------------------------------------------------------------+
Artists: Ozzy Osbourne/Randy Rhoads
Title: Revelation (Mother Earth)
Album: Blizzard of Ozz
Transcriber: Joey Carrello

Rhoads Mixes a Classical Guitar and a Steel String Guitar to Achieve This Sound
Here's the Acoustic Intro
EArtists: Ozzy Osbourne/Randy Rhoads
Title: Revelation (Mother Earth)
Album: Blizzard of Ozz
Transcriber: Joey Carrello
One Of The Greatest Ozzy Songs.....(R.I.P. Randy Rhoads)
Here's the Acoustic Intro:
E|------|-3-----2-----0-|-2---------------|-3-----2-----0-|-2---------------|
B|----0-|-----0-----0---|-----0-1-0-----0-|-----0-----0---|-----1---0-----0-|
G|--3---|---0-----0-----|-------------3---|---0-----0-----|-------2-----3---|
D|------|-2-------------|-1---------------|-2-------------|-1---------------|
A|------|---------------|-----------2-----|---------------|---2-------2-----|
E|------|---------------|-----------------|---------------|-----------------|
E|-3-----2-----0-|-7------5-----3-|-2-----5-------0-|-2-----------------|
B|-----0-----0---|-----0----0-----|-----3-------3---|---0-1----0------0-|
G|---0-----0-----|---0--------0---|---2-------2-----|-------2------3----|
D|-2-------------|-5------5-----5-|-0---------------|-1-----------------|
A|---------------|----------------|-----------------|------------2------|
E|---------------|----------------|-----------------|-------------------|

E|-2---0---0---0--|-0-0-------------|-----0---0--|
B|-0---0---0---0--|-0---0-----0---0-|---0---0----|
G|-2---2---2---2--|-0-----0---------|-0----------|
D|-1---2---2---1--|-2-------4---2---|------------|
A|----------------|-----------------|------------|
E|----------------|-----------------|-0----------|
(Guitar 1) (Guitar 2)
E|-0---7-6-7-5-----|---7-5-3-5--| |-----0---2---2-3-|-7---3---2---0---|
B|-0-0---------8-7-|-8-8-7-5-7--| |-----------0-----|---0---0---0-----|
G|-0---------------|------------| |-----------------|-----------------|
D|-2---------------|------------| |-2---------------|-----------------|
A|-----------------|------------| |-----------------|-----------------|
E|-----------------|------------| |-----------------|-----------------|
Father...
Riff A
E|-----0---------|-----0----------|----------------|
B|------------0--|------------0---|----------------|
G|---------------|----------------|-3-----------1--|
D|-9-------9-----|-9-------9------|-3-------3------|
A|-7-------------|-7------------2-|-1--------------|
E|-0-------------|-0--------------|----------------|
Riff B
E|------------|--------|---------------------| -> 1) Repeat Riff A
B|------------|--------|---------------------| 2) Acoustic Interlude
G|--4---5---2-|---0-/--|---------------------| 3) Riff C
D|--4---5---2-|----/---|--5---4--------------|
A|--2---3---0-|---/-0--|--3---2--------------|
E|------------|--------|----------3---2---0--|
Riff C
E|-----------|------------------3---|
B|-----------|--------------5-------|
G|-----9----|------------3---3-----|
D|-----9----|--------2h5-----------|
A|-----7----|----------------------|
E|-0-------1-|-2--2-----------------|
Interlude
E|-----------------------|-----------------|-------------------------|
B|-8------(8)--8-----7h8-|-7--------7------|-7--7/8---8/10---10/(8)--|
G|-----9---------(9)-----|-----8--8---8----|-------------------------|
D|---9-------------------|--------------10-|-0-----------------------|
A|-7---------------------|-----------------|-------------------------|
E|-----------------------|-----------------|-------------------------|

E|----------------|------------3----|--------5------|----------------|
B|-8------------8-|-85-----5-----5-|------5--------|-----4--5--7----|
G|---7--------7---|------2----------|----2------2---|----------------|
D|-----9----9-----|-----------------|-------------2-|----------------|
A|-------10-------|-74-------------|-3-------------|-2--------------|
E|----------------|-----------------|---------------|----------------|

E|--------------|---------------|-------------|-----------------------|
B|-8--8--7--5h7-|-8-------8p7---|-7-----------|----7/8---8/10---10/8--|
G|--------------|-------9-----9-|-------8-----|-----------------------|
D|--------------|-----9---------|----------10-|-----------------------|
A|--------------|---7-----------|-------------|-5---------------------|
E|--------------|---------------|-------------|-----------------------|

E|-7--------------3-|-------3------|-------5---------|----------------|
B|---8----------0---|---5--------5-|-----5----5------|-----4---5---7--|
G|-----7------4-----|-----2----2---|---2--------2----|----------------|
D|-------9--5-------|--------------|-----------------|----------------|
A|------------------|-4------------|-3-------------3-|-2--------------|
E|------------------|--------------|-----------------|----------------|

E|---------------------|--------------|------8--------|-------------------|
B|-87-8/10-12p10-108-|-8----------8-|-7--------7----|---7/8-8/10-10/12--|
G|-98-9/11-1211-119-|-9-------9----|----8----------|-------------------|
D|---------------------|-------9------|---------------|-------------------|
A|---------------------|---7-7--------|-------------9-|-5-----------------|
E|---------------------|--------------|---------------|-------------------|

E|--------------------|-----------------|-----------------|-----------------|
G|-12---------------8-|----------8------|--------10-------|-----4---5---7---|
B|-12-12----------7---|-9-------------9-|-----9-----9-----|-----------------|
D|------12-9----9-----|-------7-----7---|---7---------7---|-----------------|
A|-----------10-------|-----------------|---------------7-|-2---------------|
E|--------------------|----9------------|-8---------------|-----------------|

E|-------------|-------------|-------8-------|----------------------|
G|-8----7----8-|-8----7----8-|-7-------10----|-----7/8--8/10--10/8--|
B|--(9)--------|-------------|------------11-|----------------------|
D|-------------|-------------|---------------|-0--------------------|
A|-------------|-------------|---------------|----------------------|
E|-------------|-------------|---------------|----------------------|


E|-7----------------|------------------|----------------------|
G|---8------------8-|----------8-------|---------10-----------|
B|-----7--------7---|-9--------------9-|-------9-------X------|
D|-------9----9-----|-------7--------7-|----7----------X------|
A|---------10-------|------------------|---------------X------|
E|------------------|----9--------9----|-8--------------------|

(Riff C)
Pick Slide
Prelude to Solo:
E|-------------------------|-------------------------------------------|
B|-------------------------|-5-----------------------------------------|
G|-------------------------|-3-----------------------------------------|
D|-------------------------|-5---------------------4h5-4h5p5-----------|
A|-7-----------------------|-----------------4h5h7---------------------|
E|-x--x--x--x--x--x--x--x--|----x--x--x--x-----------------------------|
E|-------------------------|--------------------------------|
B|-------------------------|-5--------4---------------------|
G|-------------------------|-3--------4----4h5-2h4p2p0------|
D|-------------------------|-5--------4----------------4-2--|
A|-7-----------------------|----------2---------------------|
E|-x--x--x--x--x--x--x--x--|----x--x------------------------|
Question/Comments
[email protected]




Ваше мнение



Капча