Over The Mountain-Ozzy Osbourne
Diary Of A Madman
Tuning:
Eb Ab Db Gb Bb Eb
( t )= trill notes
Drums
e-----------------------------------------------------------------
b-----------------------------------------------------------------
g-----------------------------------------------------------------
d-----------------------------------------------------------------
a---------------------------------------------------------7---7---
e---------------------------------------------------------0---5---
0:04
x3, pm low notes
e-----------------------------------------------------------------
b-----------------------------------------------------------------
g-----------------------------------------------------------------
d-6---------------------------------------------------------------
a-6----------------------------------------------------------7--5-
e-4---4-4-4-4-4-4-4-4-4-4-4-4-4-4-4-4-4-4-4-4-4-4-4-4-4-4-4--0--0-
then
e-----------------------------------------------------------------
b-----------------------------------------------------------------
g-----------------------------------------------------16---15-----
d-6---------------------------------------------------------------
a-6---------------------------------------------------14---13-----
e-4---4-4-4-4-4-4-4-4-4-4-4-4-4-4-4-4-4-4-x~~~~~~~~~--0----------
Verse 1:
e-----------------------------------------------------------------
b-----------------------------------------------------------------
g-----------------------------------------------------------6-----
d-----------------------------------------------------------6-----
a-----------------------------------------------------------4-----
e-4-4-4-4-4-4-4-4-4-4-4-4-4-4-4-4-4-4-4-4-4-4-4-4-4-4-4-4---------
e-----------------------------------------------------------------
b------------------------------------------------4h5--7-----------
g------------------------------------------------4----6-----------
d---------------------------------------------6-------------------
a------------------------------------------6----------------------
e-4-4-4-4-4-4-4-4-4-4-4-4-4-4-4-4-4--4--7-------------------------
Chorus:
e-----------------------------------------------------------------
b-----------------------------------------------------------------
g-9----------11-----------9------------11-------------------------
d-9----------11-----------9------------11-------------------------
a-7-----------9-----------7-------------9-------------------------
e-7-----------9-----------7-------------9-------------7--6--------
e-----------------------------------------------------------------
b-----------------------------------------------------------------
g-9----------11-----------9------------11-------------------------
d-9----------11-----------9------------11-------------------------
a-7-----------9-----------7-------------9-------------7--7--------
e-7-----------9-----------7-------------9-------------0--5--------
play intro again
Verse 2
e-----------------7----------------7-----------------7------------
b-----------------7----------------7-----------------7------------
g-------------------------------------------------------------6---
d-------------------------------------------------------------6---
a-------------------------------------------------------------4---
e-4-4-4-4-4-4-4-4-----4-4-4-4-4-4------4-4-4-4-4-4------4-4-------
e------------------7----------------------------------------------
b------------------7----------------------------4h5---7-----------
g-----------------------------------------------4-----6-----------
d--------------------------------------------6--------------------
a-----------------------------------------6-----------------------
e-4-4-4-4-4-4-4-4-----4-4-4-4-4-4---4--7--------------------------
e-----------------7----------------7-----------------7------------
b-----------------7----------------7-----------------7------------
g-------------------------------------------------------------6---
d-------------------------------------------------------------6---
a-------------------------------------------------------------4---
e-4-4-4-4-4-4-4-4-----4-4-4-4-4-4------4-4-4-4-4-4------4-4-------
e------------------7----------------7-----------------------------
b------------------7----------------7-----------5p4---7-----------
g-----------------------------------------------4-----6-----------
d--------------------------------------------6--------------------
a-----------------------------------------6-----------------------
e-4-4-4-4-4-4-4-4-----4-4-4-4-4-4------7--------------------------
Chorus:
play intro again, then
Bridge:
e----------4-------------0-----0---------------------0-----0------
b-----5------5-------------0-----------5---4------------0---------
g-6------------6----4--------------6-------------4----------------
d-6-----------------4--------------6-------------4----------------
a-4-----------------2--------------4-----------0-2----------------
e--------------------------------------------4--------------------
e----------4-------------0-----0-------------------0--------------
b-----5------5-------------0-----------------------0--------------
g-6------------6----4--------------6----------2---------2--2------
d-6-----------------4--------------6----------2---------2--2------
a-4-----------------2--------------4----------0---------0--0------
e-----------------------------------------2-4---------------------
Interlude: x3
e-----------------------------------------------------------------
b---------7p6h7-----------9p6h9-----------7p6h7-------------------
g---------8p6h8-----------8p6h8-----------8p6h8-------------------
d--------------------------------------------------6--------------
a-6---6-6--------6---6-6----------6-6-6-6----------6--------------
e--------------------------------------------------4--------------
then
e-----------------------------------------------------------------
b---------7p6h7-----------9p6h9-----------7p6h7-------------------
g---------8p6h8-----------8p6h8-----------8p6h8----4--------------
d--------------------------------------------------4--------------
a-6---6-6--------6---6-6----------6-6-6-6----------2--------------
e-----------------------------------------------------------------
Solo: 2 gtr parts. arr for 1 gtr w/ octaver,
set to harmonize 1 octave up...this took for bloody ever
to type, so if ya need the rhythm for he solo, figure it out.
e-----------------------------------------------------------------
b-----------------------------------------------------------------
g-----------------------------------------------------------------
d--------x-6~~~~~~~~~------------------------6~~~~~~--------------
a-------x-------------5~~~~~~~-4-2-------------------5~~~~~/14----
e-4~~~~~~~-------------------------2-2/4~~~~----------------------
e-----4-7-5p4---4-------------------------------------------------
b---5---------7---7p5-4---4---------------------------------------
g-6---------------------6---6p4-----------------------------------
d-------------------------------7-6p4-6p4---4---------------------
a-----------------------------------------7----7~~~~~~--6~~~~~~~~-
e-----------------------------------------------------------------
e-----4-7-5p4---4-------------------------------------------------
b---5---------7---7p5-4---4---------------------------------------
g-6---------------------6---6p4-----------------------------------
d-------------------------------7-6p4-6p4---4---------------------
a-----------------------------------------7----7~~~~~~--6~~~~~~~~-
e-----------------------------------------------------------------
e-------------------------------16----------19b~~~-16------16-----
b----------------------------------19-16-19-----------19b~~---19--
g----------------------16-18b~~~----------------------------------
d----------------16-18--------------------------------------------
a-------14-16/18--------------------------------------------------
e-14-16-----------------------------------------------------------
dive and pull whammy bar up on v’s
e------------------------------------------------------------0-0-
b-16h19p16-16h19p16h19p16h19vv-p16h19p16h19vvv-16h19p16h19vvv-----
g-----------------------------------------------------------------
d-----------------------------------------------------------------
a-----------------------------------------------------------------
e-----------------------------------------------------------------
e-7-8-10-7-8----7---------------------------------------------0---
b------------10---8-10-7-8-5-7-5----------------------------------
g--------------------------------7-6-7-4h5---4--------------------
d------------------------------------------7---7-5---4~~~~~-------
a--------------------------------------------------7--------------
e-----------------------------------------------------------------
e-3p2p0-------------------3p2p0-----------------------------------
b-------3p2p0-------3p2p0-------3p2p0-----------------------------
g-------------3p2p0-------------------3p2p0--2--0vvvv/12h13h14p13-
d-----------------------------------------------------------------
a-----------------------------------------------------------------
e-----------------------------------------------------------------
e-10b~~~~~~~~~rb--------------------------------------------------
b----------------10p76-9p65-8p54-7p43-6p32-5p2p0h6p3p0h7p4p0-
g-----------------------------------------------------------------
d-----------------------------------------------------------------
a-----------------------------------------------------------------
e-----------------------------------------------------------------
e-----------------------------------------------------------------
b-----------------------------------------------------------------
g-----------------------------------------------------------------
d-----------------------------------------------------------------
a----------------------------------------------x-----------------
e-6b~~~~~~~~~~~~~~~~~~~~~~~~~~~~~~~~~~~~~~~~~---------------------
3rd Verse:
e---------7--------------7---------------7------------------------
b---------7--------------7---------------7------------------------
g-----------------------------------------------4------6----------
d-----------------------------------------------4------6----------
a------------------------------------------------------4----------
e-4-4-4-4----4-4-4-4-4-4----4-4-4-4-4-4----4-4-----4--------------
e----------7-------------7--------------7-------------------------
b----------7-------------7--------------7----4h5---7--------------
g--------------------------------------------4-----6--------------
d-----------------------------------------6-----------------------
a-----------------------------------------------------------------
e-4-4-4-4----4-4-4-4-4-4----4-4---4--4----------------------------
e---------7--------------7---------------7------------------------
b---------7--------------7---------------7------------------------
g-----------------------------------------------4------6----------
d-----------------------------------------------4------6----------
a------------------------------------------------------4----------
e-4-4-4-4----4-4-4-4-4-4----4-4-4-4-4-4----4-4-----4--------------
e----------7-------------7----------------------------------------
b----------7-------------7-------------------4h5---7--------------
g--------------------------------------------4-----6p4------------
d-----------------------------------------6-----------------------
a---------------------------------------6-------------------------
e-4-4-4-4----4-4-4-4-4-4----4-4---4--7----------------------------
Outro Solo:
e-----11-14-12p11--11---------------------------------------------
b---12-----------14--14p12-11--11---------------------------------
g-13-------------------------13--13p11--11------------------------
d-------------------------------------13--14-13p11-13p11--11------
a-------------------------------------------------------14---14-13
e-----------------------------------------------------------------
e-----11-14-12p11--11---------------------------------------------
b---12-----------14--14p12-11--11---------------------------------
g-13-------------------------13--13p11--11------------------------
d-------------------------------------13--14-13p11-13p11--11------
a-------------------------------------------------------14---14-13
e-----------------------------------------------------------------
e---------------------------------------14-12-11------------------
b-------------------------(11t12)---------------14-12-11----------
g-------------------11-13-----------13-------------------13-11-13b
d----------11-13-14-----------------------------------------------
a-11-13-14--------------------------------------------------------
e-----------------------------------------------------------------
e-------(11)--19b~~~~p16----16-----------------------------------
b-------------------------19----19b~~~~~~~~~~~--------------------
g-13b~~~----------------------------------------------------------
d-----------------------------------------------------------------
a-----------------------------------------------------------------
e-----------------------------------------------------------------
e-----------------------------------------------------------------
b-----------------------------------------------------------------
g-6---------------------------------------------------------------
d-6-----------------------------6---------------------------------
a-4-----------------------7--7--6---------------------------------
e-4-----------------------0--5--4---------------------------------
that’s all
damn motherfucker thats a long ass song to type out
trevor jones
[email protected]


Ваше мнение



Капча