One Up the B-Side (from the Crazy Train single)
===============================================

Standard Tuning

------------------------------------------------------------------------------
------------------------------------------------------------------------------
-7-----7--\--5----------------------------------------------------------------
-7-----7--\--5-----5-----5--\--3----------------------------------------------
-5-----5--\--3-----5-----5--\--3----------------------------------------------
-------------------3-----3--\--1-----0-1-0-1-0-1-0----------------------------
Intro/Chorus riff pm.............

-----------------------------------|-----------|------------------------------
-----------------------------------|-----------|------------------------------
--------------x--5-----5-/-7---7---|-x-x-7-\---|-7---7---7--------------------
-7---5---7----x--5-----5-/-7---7---|-x-x-7-\---|-7---7---7--------------------
-7---5---7----x--3-3-3-3-/-5-5-5---|-x-x-5-\---|-5---5---5--------------------
-5---3---5---------...-------.-----|-----------|------------------------------
Verse riff various fills at end of riff

------------------------------------------------------------------------------
------------------------------------------------------------------------------
-------------7----------------------------------------------------------------
-7---5---7-----7--------------------------------------------------------------
-7---5---7-5-----5------------------------------------------------------------
-5---3---5--------------------------------------------------------------------
fill right before chorus

------------------------------------------------------------------------------
------------------------------------------------------------------------------
-----5-----5-----5-----5---5-\-3----------------------------------------------
-----5-----5-----5-----5---5-\-3----------------------------------------------
-3-3-3-3-3-3-3-3-3-3-3-3-3-3-\-1-repeat a few times then go to part B---------
-...---...---...---...---.----------------------------------------------------
solo backing riff part A

------------------------------------------------------------------------------
------------------------------------------------------------------------------
-----9-----9-----9-----9-----9------------------------------------------------
-----9-----9-----9-----9-----9------------------------------------------------
-7-7-7-7-7-7-7-7-7-7-7-7-7-7-7---repeat a few times then go to part C---------
-...---...---...---...---...--------------------------------------------------
solo backing riff part B

------------------------------------------------------------------------------
------------------------------------------------------------------------------
------------------------------------------------------------------------------
------------------------------------------------------------------------------
-8-8-8-8-8-8-8-8-8-8-8-8-8-8-8-8-gradually un-mute strings and go to Chorus---
-..............---------------------------------------------------------------
solo backing riff part C




Ваше мнение



Капча