-------------------------------------------------------------------------------
Old LA Tonight – Ozzy Osbourne
-------------------------------------------------------------------------------

By: Dean Cavey

I have only posted the lead guitar parts for this song. The rhythm parts are
fairly simple to work out.
Because Zakk Wylde usually has the guitar tuned down 1/2step, I have tabbed it
using this tuning, but probably the rhythm guitar has standard tuning.
Tuning: Eb Ab Db Gb Bb Eb
E-Mail comments or changes to [email protected]

Intro
e|----------------------------------------6-8--------------------------------|
B|-----------------------9/11~--9h11p9~------9~--6-9-------------------------|
G|---10r8-6~-8b10---r8-6----------------------------6~--6h8p6-------6-8~-----|
D|------------------------------------------------------------6h8~-----------|
A|---------------------------------------------------------------------------|
E|---------------------------------------------------------------------------|

e|---------------------------------------------------------------------------|
B|-------------9-------------------------------------------------------------|
G|---8b10-8b10----8b10-8b10r8—6~---6h8p6-------------------------------------|
D|---------------------------------------6h8—8b9r8--6------------------------|
A|---------------------------------------------------------------------------|
E|-------------------------------------------------------16-----------------|

e|---------------------------------------------------------------------------|
B|---------------------------------------------------------------------------|
G|---------------------------------------------------------------------------|
D|-------------------6-------------------------------------------------------|
A|---------4-6~--6/8---6b8r6---4h6p4~~~~~------------------------------------|
E|---4-6~--------------------------------------------------------------------|

Fill 1
e|---------------------------------------------------------------------------|
B|---------------------------------------------------------------------------|
G|---------------------------------------------------------------------------|
D|-------6-slow bend-b8r6—4~~~--3~~~-----------------------------------------|
A|---------------------------------------------------------------------------|
E|---------------------------------------------------------------------------|

Solo
e|--------------------------------------------------------6h9p6---------------|
B|--------------------------------------9-9h11-9---6-------------9h11p9-------|
G|------------6h8p6—6b8-6b8~---r6p4-6/8--------------8-6-----------------6h9p6
D|----6h8~~-------------------------------------------------------------------|
A|----------------------------------------------------------------------------|
E|----------------------------------------------------------------------------|

e|---------------------------------------------------------------------------|
B|---------------------------------------------------------------------------|
G|---8-hold—h10p8h10p8h10p86~~----6-8--6-8/10—10r8--8—8/10—6~~--------------|
D|---------------------------------------------------------------------------|
A|---------------------------------------------------------------------------|
E|---------------------------------------------------------------------------|

e|---------------------------------------------------------------------------|
B|-------4h6p4~-------4h6p4~-----------4h6-----------------------------------|
G|---5h6----------5h6--------------5h6-----6~~~~~~~~-------------------------|
D|---------------------------------------------------------------------------|
A|---------------------------------------------------------------------------|
E|---------------------------------------------------------------------------|

e|---13--------13--------13--------------------------------------------------|
B|---16b18—----16b18-----16b18r16----14~~~~~----14h16p14--------------------|
G|---------------------------------------------------------13h15p13----------|
D|-------------------------------------------------------------------15h18p15|
A|---------------------------------------------------------------------------|
E|---------------------------------------------------------------------------|

e|---------------------------------------------------------------------------|
B|---------------------------------13------14------13------14------13--------|
G|--------13-----------------------15b17---16b18---15b17---16b18---15b17r15--|
D|--13/15----15—13b15r13-----------------------------------------------------|
A|------------------------16~~----------------------------------------------|
E|---------------------------------------------------------------------------|

e|---16b18~-----13h16p13—-13h16p13----------------22b25-25-25-25r22-21~------|
B|----------------------------------16b18~~----------------------------------|
G|---------------------------------------------------------------------------|
D|---------------------------------------------------------------------------|
A|---------------------------------------------------------------------------|
E|---------------------------------------------------------------------------|

e|--22b25-25-25-25r22-21~---22b25-25-25-22b26-26-25r22-19-21~~---------------| (If these bends
B|---------------------------------------------------------------------------| are too difficult
G|---------------------------------------------------------------------------| try the ones in
D|---------------------------------------------------------------------------| brackets)
A|---------------------------------------------------------------------------|
E|---------------------------------------------------------------------------|

e|---------------------------------------------------------------------------|
B|-(-16b18-18-18-18r16-14~---16b18-18-18-18r16-14~---16b18-18-18-16b19-19-19-|
G|---------------------------------------------------------------------------|
D|---------------------------------------------------------------------------|
A|---------------------------------------------------------------------------|
E|---------------------------------------------------------------------------|

e|---------------------------------------------------------------------------|
B|--18r16--12-14~~)----------------------------------------------------------|
G|---------------------------------------------------------------------------|
D|---------------------------------------------------------------------------|
A|---------------------------------------------------------------------------|
E|---------------------------------------------------------------------------|

e|--16-14-13--------------13------------16-14-13--------------13-------------|
B|----------16-14-13-14-16--16-14-13~-----------16-14-13-14-16--16-14-13~----|
G|---------------------------------------------------------------------------|
D|---------------------------------------------------------------------------|
A|---------------------------------------------------------------------------|
E|---------------------------------------------------------------------------|

e|-----------------------------------------16p13-16p13-----------------------|
B|-13-16p14p13-16p14p13-16p14p13-16p14p13-------------16p13-16p13------------|
G|---------------------------------------------------------------15p13-15p13-|
D|---------------------------------------------------------------------------|
A|---------------------------------------------------------------------------|
E|---------------------------------------------------------------------------|

e|---------------------------------------------------------------------------|
B|---------------------------------------------------------------------------|
G|---------------------------------------------------------------------------|
D|--15p13-15p13--------------------------------------------------------------|
A|--------------13----------------------------------------------------------|
E|---------------------------------------------------------------------------|

===============================================================================




Ваше мнение



Капча