Date: Sat, 04 Jan 1997 04:11:35 -0800
From: Thomas James
Subject: Chords / Ozzy / now you see it
Song: Now You See It (Now You Don't)
Artist: Ozzy Osbourne / Jake E Lee
Album: Bark At The Moon
Transcriber: Michael R James
PM.. .. .. .. ........
G--5-4-2-7-5-7-7-7/9----9----9----9-7-7/9---------------5----7-7/9---7-5-4-2-7-5-7-
D--5-4-2-7-5-7-7-7/9----9----9----9-7-7/9---------------5----7-7/9---7-5-4-2-7-5-7-
A--3-2-0-5-3-5-5-5/7----7----7----7-5-5/7----7----5----------5-5/7---5-3-2-0-5-3-5-
E--------------------00---00---00---------00---00---7-5----------------------------
1,3|--------------| 2|------| 4|------
B------------------------3----3-----|----------------------------------------------
G------2--2--2---2----2--2----2-2---|---------2-------------2-----9-10--9-10--9-10-
D------2--2--2---2----2--0----0-2---|---------2-3-----------2-3---9-10--9-10--9-10-
A------0--0--0---0----0---------0---|---------0-3-----------0-3---7-8---7-8---7-8--
E---3b-------------3b---------------|------3b---1--------3b---1--------------------
heres this little thing
D--10-9-7----7----------|
A---------10---10-8-7---|




Ваше мнение



Капча