SONG: No Bone Movies
ARTIST: Ozzy Osbourne
TITLE: Tribute
WRITTEN BY: Ozzy Osbourne, Randy Rhoads, Bob Daisley and Lee Kerslake
TRANSCRIBED BY: Chris Mayo
X = muffled string
= slide down guitar
/ = slide up guitar
> = pick slide
| = bars
h or hh = hammer-on
p or pp = pull-off
t = tap with right hand (pick hand)
^ or b = bend to the note specified (1/2 note is the same as 1 fret)
P.H. = pinch harmonic
Intro
|-----|-------------------|---------------|-------------------|-----------------|
|-----|-------------------|-3-x-x-3-------|-------------------|-3-----3---------|
|-----|---2---------------|-2-x-x-0-------|---2---------------|-2-----0---------|
|-----|-2---5p4p2-4p2-----|-0-x-x-0-------|---2-5p4p0-4-2-----|-0-----0---------|
|-----|-0-------------3p0-|-----------^-0-|-0-------------3p0-|------------^-0--|
|--3--|-------------------|-------3---3---|-------------------|---0-2-3--0-3----|
|-------------------|--------------|-0----------0-|---------|------3--3---|-----|
|-----------^--^--^-|-3-3-3-3------|-0-----2----0-|---------|-3--3-3--3-3-|-----|
|---2-------4-------|-2-0-2-0------|-1-----2----1-|---------|-2--2-0--0-2-|-----|
|-2---5p4p0---------|-0-0-0-0------|-2-----2----2-|---------|-0--0-0--0-0-|-----|
|-0-----------------|--------------|-2-----0----2-|--1514-|-------------|0-3h4|
|-------------------|-------3--15-|-0-0-3----3-0-|---------|------3--3---|-----|
Silver screen... I couldn't look her...
|-----------------|-----------------|--------5-------|--------------------------|
|-----------------|---7-8---7-8-----|--------5-------|-----3--------------------|
|---2-----2-------|---7-7---7-7-2-2-|----2---2-------|---0----------------------|
|---2-----2-------|---7-7---7-7-2-2-|----2---2---2-4-|-5-----4--2---------------|
|-0---0-0-0-0-7-8-|-9-----------0-0-|--0---0---------|------------3p0-----------|
|-----------------|-----------------|----------------|--------------------------|
A blue addiction... degradation being eaten...
|------------------|-----7---5-7-----|------------|-----------------------------|
|---------------6-|-5---5---5-------|------------|-----------------------------|
|-2---2---2-2-6-6-|-5---5---5-----2-|---2---2--2-|-----------------------------|
|-2---4---2-2-5-5-|-4---4-4-4-----2-|---4---2--4-|-------2---------------------|
|-0-0-0-0-0-0------|-------------0-0-|-0-0-0-0--0-|-------2----^-0--------------|
|------------------|-----------------|------------|-3-2-0-0--0-3----------------|
No bone movies. No bone movies.
|-------------------|-------------|------------------|--------------------------|
|-------------------|-3--3-3------|-----------^-^--^-|-3-x-3-3------------------|
|---2---------------|-2--2-0------|---2-------4-4----|-2-x-2-0------------------|
|---2-5p4p2-4p2-----|-0--0-0------|-----5p4p2--------|-0-x-0-0------------------|
|-0-------------3p0-|---------^-0-|-0----------------|------------^-------------|
|-------------------|------3--3---|------------------|-------3--x-3-------------|
No bone movies.
|-------------------|-------------|-0----------0-|------|------3--3-2-|---------|
|-------------------|-3--3-3------|-0-----2----0-|-x---|-3--3-3--3-3-|---------|
|-2-2-------------2-|-2--2-0------|-1-----2----1-|---x-|-2--2-0--0-2-|-5h6-5h6-|
|-2-2-5p4p2-4p2-4---|-0--0-0------|-2-----2----2-|------|-0--0-0--0-0-|---------|
|-0-0---------------|-------------|-2-0---0----2-|------|-------------|---------|
|-------------------|------3------|-0---3----3-0-|------|------3--3---|---------|
Inspiration... can't kick the habit...
|-------------------|-----------------------|-----------------|-----------------|
|-----7-----5-------|----7--8----7--8-------|-----------------|-----3-----------|
|-----7-----5h6-----|----7--7----7--7--2--2-|-2-------2-------|---0-------------|
|-----7--7----------|----7--7----7--7--0--0-|-2-------2-0-2-4-|-5-----4--2------|
|-0-0-----------7-8-|-9-------9--------0--0-|-0-x-0-0---------|------------3p0--|
|-------------------|-----------------------|-----------------|-----------------|
Voyeurstraining, in love with his hand A poison passion...
|-----5---------5-----|--------7-----5--7-------|---------------|---------------|
|-----5---------5--6-|-5-----5-----5----------|---------------|---------------|
|------------------6-|-5-----5-----5-----2--2-|----2--2--2--2-|---------------|
|------------------5-|-4--4--4--x--4-----2--2-|----4--2--4--2-|-------2-------|
|-0-------0--0--------|--------------------0--0-|-x--0--0--0--0-|-------2------0|
|---------------------|-------------------------|---------------|-3-2-0-0--0-3--|
No bone movies. No bone movies.
|-------------------|----------------|-------------------|----------------------|
|-------------------|-3---3--3-------|-------------------|-3-x-3--3-------------|
|-2-2---------------|-2---2--0-----2-|---2---------------|-2-x-2--0-------------|
|-2---5p4p2-4p2-----|-0---0--0-----2-|---2-5p4p2-4p2-----|-0-x-0--0-------------|
|-0-------------3p0-|--------------0-|---------------3p0-|---------------^-0----|
|-------------------|--------3---3---|-------------------|--------3------3------|
No bone movies
|--------------------|---------------|-0----------0-|-----|--------3---3--2-----|
|-----------^-^------|-3-3-3--3------|-0----------0-|-----|-3---3--3---3--3-----|
|---2-------4-4-p2---|-2-0-2--0------|-1-----2----1-|-----|-2---2--0---0--2-----|
|-2---5p4p2--------4-|-0-0-0--0------|-2-----2----2-|-----|-0---0--0---0--0-----|
|-0------------------|---------------|-2-----0----2-|-----|---------------------|
|--------------------|--------3------|-0-0-3----3-0-|-15-|--------3---3--------|
Guitar solo
|-(2)--------|-16------------17----17-20p17----17-------|-------------------17--|
|-(3)--------|----19/20-20------20----------20----20p17-|----17-----------------|
|-(2)--17/20-|------------------------------------------|-20----20p17-19/20-----|
|-(0)--------|------------------------------------------|-----------------------|
|------------|------------------------------------------|-----------------------|
|------------|------------------------------------------|-----------------------|
^ ^ ^
|-------------------------|--------------19---19--19--19-|-(19)-----------------|
|-------------------------|------------------------------|--------22p20h22p20---|
|-19p17-19p17-------------|------------------------------|----------------------|
|-------------19p17-------|-------19---------------------|----------------------|
|-------------------19p17-|------------------------------|----------------------|
|-------------------------|-20/21------------------------|----------------------|
^
|----17----17-17-|-17h20p17----17-17-17h20p17----17-17-20p17----17-------20-----|
|-20----20-------|----------20----------------20-------------20----20p17--------|
|----------------|--------------------------------------------------------------|
|----------------|--------------------------------------------------------------|
|----------------|--------------------------------------------------------------|
|----------------|--------------------------------------------------------------|
|-(20)---17----17----------------------------|----------------------------------|
|-----------20----20p17----17h20p17----17----|----------------------------------|
|-----------------------19----------19----19-|-p17----19----17------------------|
|--------------------------------------------|-----19----19----19p17----17h19---|
|--------------------------------------------|-----------------------19---------|
|--------------------------------------------|----------------------------------|
^ ^ P.H..........
|----------19-|-(19)----19---x---^-|----------------------------|--------------|
|-------------|--------------x--17-|-(17)-17--16-15-17-16-17----|--------------|
|-17----17----|--------------x-----|-------------------------14-|--17-14-14---|
|----19-------|---------------------|----------------------------|--------------|
|-------------|---------------------|----------------------------|--------------|
|-------------|---------------------|----------------------------|--------------|
|-17h20p17----17-----------------------------------------------|----------------|
|----------20----20p17h20p17----17-----------------------------|----------------|
|----------------------------19----19p17h19p17----17-----------|---------17-18--|
|----------------------------------------------19----19p17--^--|------19--------|
|----------------------------------------------------------19--|----0-----------|
|--------------------------------------------------------------|----------------|
I shouldn't do it... I just can't stop it
|--------------8/9--------|------------------------|---5----------5-------------|
|-------------------------|-------7-----7--8--7----|---5----------5-------------|
|--------7----------------|-------7-----7--7--7--2-|----------------------------|
|-----7-------------------|----7--------7--7--7--2-|--------------------2--4----|
|--0--------0---------7-8-|-9--------9-----------0-|-------0--0-----------------|
|-------------------------|------------------------|----------------------------|
X-rated demon who lives in...
|-----------------------|---5----------5--5--------|-------7----7--7------------|
|--------3--------------|---5----------5--5--5/-6-|-5-----5----5---------------|
|-----0---------------2-|--------------------5/-6-|-5-----5----5---------------|
|--5--------4---2--4--2-|--------------------4/-5-|-4--4--4----4---------------|
|---------------------0-|-------0--0---------------|-------------------(0)---0--|
|-----------------------|--------------------------|----------------------------|
hungry for bodge... No bone movies.
|---------------------|-------------------|-------------------|-----------------|
|---------------------|-------------------|-------------------|-3--3-3----------|
|------2-----2---2--2-|-------------------|---2---------------|-2--2-0----------|
|------4-----2---4--2-|-------------------|-2-2-5p4p2-4p2-----|-0--0-0----------|
|--0---0--0--0---0--0-|-------------------|-0-0-----------3p0-|------------^--0-|
|---------------------|-3------0------3h4-|-------------------|------3-----3----|
No bone movies. No bone movies.
|-------------------|----------------|-------------------|----------------------|
|-------------------|-3--3-3---------|-----------^-^-----|-3--3-3---------------|
|---2---------------|-2--2-0---------|-2-2-------4-4-2---|-2--2-0---------------|
|-2---5p4p2-4p2-----|-0--0-0---------|-2---5p4p2-------4-|-0--0-0---------------|
|-0-------------3p0-|------------^---|-0-----------------|----------------------|
|-------------------|------3-----3---|-------------------|------3---------17---|
No! No! No bone movies.
|-0------------|----|------3--3--2-|--------------|-----------------|-----------|
|-0------------|----|-3--3-3--3--3-|--------------|---------------3-|-3-3-------|
|-1-----2------|----|-2--2-0--0--2-|-5h6----------|--------2---x--2-|-2-0-------|
|-2-2---2----2-|-7-|-0--0-0--0--0-|-----7-5------|-7------2---x--0-|-0-0-------|
|-2-2---0----2-|----|--------------|---------5 4-|-0--0-0----------|-------^-0-|
|-0-0-3----3-0-|----|------3--3----|--------------|-----------------|---3---3---|
No! No! No bone movies. Yeah, Yeah, Yeah, no movies to night
|-----------------|----------|---5-5---5-------|-------3------------------------|
|---------------3-|-3-3------|---5-5---5-----3-|----3--3------------------------|
|-2-2-2---2-----2-|-2-0---0--|-2-------------2-|----2--0------------------------|
|-2-2-2---2-2---0-|-0-0---0--|-2-----2-------0-|----0--0------------------------|
|-0-0-0-0-0---4---|----------|-0-----0---0-4---|---------------------^----------|
|-----------------|---3------|-----------------|-------3-------------3----------|
No! No movies to night No! No! No bone movies
|---5-----5--------|-------3------------|---5-----5-------|------3--------------|
|---5-----5------3-|----3--3------------|---5-----5-----3-|--3-3-3--------------|
|-2---2-2--------2-|----2--0------------|---------------2-|--2-2-0--------------|
|-2---4-2---2-2--0-|----0--0------------|---------------0-|--0-0-0-----------x--|
|-0---0-0---0-4----|----------------^-0-|-0---0-0---0-4---|------------------x--|
|------------------|-------3--------3---|-----------------|------3--------------|
C'mon, let me see...
|---5-----5-------|--------3-3-5-|--5---5-5-5-5-5-5-5-----|--------------5------|
|---5-----5-----3-|-3-3-3--3-3-5-|--5h7-7-7-7-5-5-7-5-----|-----7-8--8-7-5------|
|-----2---------2-|-2-2-0--0-0---|------------------------|-----7-7--7-7--------|
|-2---2---------0-|-0-0-0--0-0---|------------------------|---7-7-9--9-7--------|
|-0---0h4---0h4---|--------------|--------------------7-8-|-9-------------------|
|-----------------|-----3--3-3---|------------------------|---------------------|
|-5---5-5-5-5-5-5-----|----------------|-----------------|----------3-3-3-------|
|-5h7-7-7-5-5-7-5-----|---7-7-8--8-7---|-----------------|-3-3-3-3--3-3-3-------|
|---------------------|---7-7-7--7-7---|-5h6-------------|-2-2-2-0--0-0-0-------|
|---------------------|---7-7-9--9-7---|-----7p5-7-------|-0-0-0-0--0-0-0-------|
|-----------------7-8-|-9------------0-|-----------54p0-|----------------------|
|---------------------|----------------|-----------------|-------3--3-3-3-------|
|-----------------|----------------|-----------------|--------------------------|
|-5-------7-7-----|-7-7-7-8--8-7---|-----------------|-3-3-3-3--3-3-------------|
|-5h6-----7-7-----|-7-7-7-7--7-7---|---------2-------|-2-0-2-0--0-0-------------|
|-6---7-5-7---7-7-|-7-7-7-9--9-7---|-2-2-------5-4p2-|-0-0-0-0--0-0----^--------|
|-----------------|--------------x-|-0-0-3h4---------|-----------------3--------|
|-----------------|----------------|-----------------|-------3--3-3-------------|
Harm,.........
|-----------------|---2---3--3-----|---5-----5-------|--------------------------|
|-----------------|---3---3--3-----|---5-----5-------|---7-12-------------------|
|-----------------|---2---0--0-0h4-|-----------------|-7--------12----2---------|
|-2---5p4-2-----2-|-0---0-0--0-0h4-|-----2-------7-7-|-------------12-2---------|
|-0-0-------3h4---|----------------|-0---0-4---0-4-5-|----------------0---------|
|-----------------|-------3--3-----|-----------------|--------------------------|
|-5-----5-------|----------3-3-3-|----------------------------------------------|
|-5-----5-------|-3-3-3-3--3-3-3-|----------------------------------------------|
|---------------|-2-2-2-0--0-0-0-|----------------------------------------------|
|---------2-----|-0-0-0-0--0-0-0-|-2--------------------------------------------|
|---0-0---0-4p0-|----------------|-0-0-0-0--4p0-0-0-0-0-0-0-4p0-0-0-0-----------|
|---------------|-------3--3-3-3-|----------------------------------------------|
|------3--3-3-|---------------------------------|-------|-----------------------|
|-3--3-3--3-3-|---------------------------------|-3--3--|-----------------------|
|-2--2-0--0-0-|---------------------------------|-2--0--|-------2-----2---------|
|-0--0-0--0-0-|---------------------------------|-0--0--|-2-----2-----2---------|
|-------------|-0-0-0-0-4p0-0-0-0-0-0-0-4p0-0-0-|-------|-2---^-0---^-0---------|
|------3--3-3-|---------------------------------|----3--|-0---3-----3-----------|
|--------|-------------|--------|--------17----------17----17-20p17----17-------|
|--------|-3--3-3--3-3-|--------|----/20----20p17-20----20----------20----20p17-|
|--------|-2--2-0--0-2-|--------|-2---------------------------------------------|
|------^-|-0--0-0--0-0-|--------|-2---------------------------------------------|
|-2/--14-|-------------|--0-3h4-|-0---------------------------------------------|
|--------|------3--3---|--------|-----------------------------------------------|
|-------------------17--------------------------------------|-------------------|
|----17----------17-----------------------------------------|-------------------|
|-20----20p17-19-------19p17--------------------------------|-1817/1817/18----|
|----------------------------19--19-19p17----17----17-19p17-|-------------------|
|-----------------------------------------19----19----------|-------------------|
|-----------------------------------------------------------|-------------------|
|-------------------------------------------------------------------------------|
|-------------------------------------------------------------------------------|
|-------------------------------------------------------------------------------|
|-------------------------------------------------------------------------------|
|-19---------------------------------------------------------------------------|
|-17---------------------------------------------------------------------------|




Ваше мнение



Капча