Mr. Crowley
|----------------------------------------------------------
|-------------------------------------------------3-5---5--
|--------0-2------2-0----0-2--4-5------5-4-2--4-5-----4----
|-0--2-3------2-------3------------5-----------------------
|---------------0--------------------3---------------------
|----------------------------------------------------------
|---------------------|
|---------------------|
|---------------------|
|-7--8--3--5--3--2--3-|
|---------------------|
|-5--6--1--3--1--0--1-|
|----------------------------------------------------------
|----------------------------------------------------------
|-7----------7-----\---------------------------------------
|-7----------7-----\---3---3------------3---3--------------
|-5------0---5-----\---1---1--x-1h3p1p0-1---1---3----------
|----------1-----------------------------------------------
|----------------------------------------------------------
|----------------------------------------------------------
|-7----------7----\----------------------------------------
|-7----------7----\----3---3------------3---3--------------
|-5------0---5----\----1---1--x-1h3p1p0-1---1---1----------
|----------1-----------------------------------------------
|----------------------------------------------------------
|-------------------5--6------------------5-6-5-6/8--6-----
|-------------------5--5------------------5-7-5-7/9--7-----
|-5---5----5--------5--7---7----7-----5h7------------------
|-3---3----3----5-7--------5----5--------------------------
|-----------------------------------x----------------------
|----------------------------------------------------------
|----------------------------------------------------------
|-5---5-----5--------5---5---3---3-------3-----------------
|-5---5-----5--------5---5---3---3-------3---(2)-----------
|-3---3-----3----x-x-3---3---1---1-------1----0------------
|----------------------------------------------------------
|-----------------------------------
|-3h4p3---3-------------------------
|-------5---5p3-5-3\2---------------
|---------------------5-3-5p3-2-----
|-------------------------------5---
|-----------------------------------
Solo:
|------10----------10----------10----------10-----10-------
|----10--13-10---10--13-10---10--13-10---10--13-10---------
|-12^---------12^---------12^---------12^------------------
|----------------------------------------------------------
|----------------------------------------------------------
|----------------------------------------------------------
|-13-10---10--------------------------------------------------
|------13---13-10-13-10--10-----------------------------------
|----------------------12--12-10-12-10--10--------------------
|-------------------------------------12--12-10-12-10--10--10-
|----------------------------------------------------12--12---
|-------------------------------------------------------------
|-----------------------------------13-13-16-15-13-18-181615-20-201817-
|--------------------10--10-10-13-15-----------------------------------
|---------10-10-10-12--12----------------------------------------------
|-12-10-12-------------------------------------------------------------
|----------------------------------------------------------------------
|----------------------------------------------------------------------
|-20--20^~~~~~~~~~~----20^--^-^---^~~~~~~---20--17--20-----
|----------------------------------------------------------
|----------------------------------------------------------
|----------------------------------------------------------
|----------------------------------------------------------
|----------------------------------------------------------
|-171817-------------------181715-17-15------------------------
|-------201720-171817-20---------------18p17-15-17-15\13-15p13-
|--------------------------------------------------------------
|--------------------------------------------------------------
|--------------------------------------------------------------
|--------------------------------------------------------------
|-----------------------------------------15^---15-15-15-15-
|----13-----------------------------------------------------
|-14----15-12----12-----------------------------------------
|-------------15----14p12-14~~~~~~~-------------------------
|-----------------------------------------------------------
|-----------------------------------------------------------
-13-12h13p12----12------------------------
-------------15----15^-~~~~~~~~~~~~-px----
------------------------------------------
------------------------------------------
------------------------------------------
------------------------------------------
|-13p10--10--10-13p10-10-10--10-13p10--10------13p10--10--10-
|------13--13--------------13--------13--13-10------13--13---
|------------------------------------------------------------
|------------------------------------------------------------
|------------------------------------------------------------
|------------------------------------------------------------
|-13p10--10--10-13p10--10-----13p10--10-----13p10--10------
|------13--13--------13--13-10-----13--13-10-----13--13-10-
|----------------------------------------------------------
|----------------------------------------------------------
|----------------------------------------------------------
|----------------------------------------------------------
|-----------------------------------------5-h6p5---5-------
|-13-8h10\8-5-6-5\3-4-1-/-5-6p5---5h6p5h6--------8---8--^--
|-------------------------------7--------------------------
|----------------------------------------------------------
|----------------------------------------------------------
|----------------------------------------------------------
|--------------------------------------------------------------
|-6-------------6p5--------------------------------------------
|---7---7~~-7p5-----7p5----------------------------------------
|-----------------------7p6p5---5h6p5---5-------5p3-------3----
|-----------------------------8-------8---8-5\3-----5p3-5---5--
|--------------------------------------------------------------
|----------------------------------------------------------
|----------------------------------------------------------
|----------------------------------------------------------
|----------------------------------------------------------
|-7h8p7----7h8p7----7-----7--p--4---0\---------------------
|-trill---trill-----------------------\dive---(end solo)---
|--------------------------------------------
|-----------------------------------8-10-11--
|----------------------------7h9h10----------
|-----------7---------7-8-10-----------------
|----7-8-10---10-8-10------------------------
|-10-----------------------------------------
|-----------------------5-3-|--------------------6-5-------
|-3-------5-6-5---------6-5-|----------5---------8-6-------
|-2-----7-------7-5-7-------|-5----5-7---7-5---------------
|-0---7-------------8-------|-5--5-----------5-7-----------
|---------------------------|------------------------------
|---------------------------|------------------------------
|----------------------5-3--|----------5-------------------
|-3----5h6-8-6-5-------6-5--|-5--6--8-----8--6--5----------
|-3--7-----7-5-3-7----------|------------------------------
|----------------7--5-------|------------------------------
|---------------------------|------------------------------
|---------------------------|------------------------------
|-17p13-------------------18p13----------------------------
|-------15-(repeat 4 X)--------15--(repeat 4x)-------------
|----------------------------------------------------------
|----------------------------------------------------------
|----------------------------------------------------------
|----------------------------------------------------------
|-15p12------------------17p13-----------------------------
|-------13-(repeat 4x)---------13-(repeat 4x)--------------
|----------------------------------------------------------
|----------------------------------------------------------
|----------------------------------------------------------
|----------------------------------------------------------
|----------------------------------------------------------
|-15h16p15h16-16/18\16/18-18---16---15---16----------------
|-15h17p15h17-17/19\17/19-19---17---15---17----------------
|----------------------------------------------------------
|----------------------------------------------------------
|----------------------------------------------------------
|-15---12---------12----9----10----12----13---12-----------
|-/-----/----11----/----/-----/-----/-----/----------------
|-/-----/-----/----/----/-----/-----/-----/----------------
|-/-----/-----/----/----/-----/-----/-----/----------------
|-------------/--------------------------------------------
|----------------------------------------------------------
|-10h12p10h12p10h12-12~~~~~~~---910910910-----------------------------
|----------------------------------------101110111011-----------------
|----------------------------------------------------910910910-676767-
|---------------------------------------------------------------------
|---------------------------------------------------------------------
|---------------------------------------------------------------------
|---------9h10-12-10-12^~~~~~-----5h6p5--5-----------------------
|-----9h10-----------------------------8---8-6p5-6p5-7-5---------
|-9h10---------------------------------------------------8p7-5---
|--------------------------------------------------------------8-
|----------------------------------------------------------------
|----------------------------------------------------------------
|--------------------------------------------56865---------
|-----------------------------------------568------8-------
|----------------------------------235-357-----------------
|-5---------5-7p5---------------235------------------------
|---8p7p5-8-------8-\--------135---------------------------
|-------------------------135------------------------------
|-5-------------5------------------------------------------
|---8-6p5-6p5-8---8-----6--5-----232323/353535/65656/86868/
|----------------------------------------------------------
|----------------------------------------------------------
|----------------------------------------------------------
|----------------------------------------------------------
-----------------------------------------------------------
/10810810/11101110111011/131113111311-15^------------------
-----------------------------------------------------------
-----------------------------------------------------------
-----------------------------------------------------------
-----------------------------------------------------------
|---------------------------------------171817--17-----------17---------20^-
|-17h18----------17-18-17-18----------18------20--201817-1820--20-18-17-----
|-------19~~~~---------------19~~~~~----------------------------------------
|---------------------------------------------------------------------------
|---------------------------------------------------------------------------
|---------------------------------------------------------------------------
|-18--17--2018172018152018-14-19-16\15-131814131613121512\11101411-9--
|---------------------------------------------------------------------
|---------------------------------------------------------------------
|---------------------------------------------------------------------
|---------------------------------------------------------------------
|---------------------------------------------------------------------
|-13-10\5h6p5---5------------------------------------------
|-------------8---8-6-5---5--------------------------------
|-----------------------7---7-5---5------------------------
|-------------------------------8---8-7-8-7---------5------
|-------------------------------------------7/8-7h8--------
|----------------------------------------------------------
|----------------------------------------------------------
|----------------------------------------------------------
|----------------------------------------------------------
|-7--5------------------------------------3----------------
|-------8--7---5--3--------3/5------5-3-5---5-3-5----------
|--------------------5-3-1---------------------------------
|----------------------------------------------------------
|-------------------------------------6p5------------------
|---------------------------------5h7----7p5-7~~~~---------
|-6-3-5-3----------------3--5-5/7--------------------------
|---------5-3---5--3--5------------------------------------
|----------------------------------------------------------
|-5h6p5---5------------------------
|-------8---8-6-5-6-5--------------
|---------------------7-5-7-5------
|-----------------------------8-7--
|----------------------------------
|----------------------------------




Ваше мнение



Капча