Mama I'm Comin' Home - Ozzy Osbourne
====================================
Intro - 12 string acoustic (note - tune down 1/2 step)
E ---12---------------
B ------12------------
G ---------11-b--\9---
D --------------------
A --------------------
E --------------------
riff a
E ------0--------0-------0--------0------0-------0-------0------------
B --------0--------0-------0--------0------0-------0-------0----------
G ----9------8-8------6-------4-4------2------1-----------------------
D -----------------------------------------------------4-------2------
A --------------------------------------------------------------------
E -0-------------------------------------------------------------0----

E ----0----------0-------0----------0----------0-----0--------0------0----
B ------0----------0-------0----------0--------0-------0---------0---0----
G --/9------8---8------6------4---4-------2----1---------------------1----
D ---------------------------------------------------------4---------2----
A ------------------------------------------------------------------------
E ------------------------------------------------------------------------
times have changed and times are strange here I come but I ain't the same
E -------- 0-----------0-------------------0------0-------0----
B ----------0-------------0-------------0----0------0-------0--
G ------1----2-------2-----2-------------1-----1/2----2/4------
D ----2-------2----2---------2--------2------------------------
A --0-----------0--------------2-------------------------------
E -------------------------------------------------------------
Mama I'm comin home. . .
Pre-chorus:
riff b
E --------4------4--------------5-------5-------------0----0---0----0---0------
B --------5------5--------------5-------5-------------0----0---0----0---0------
G --------4------4--------------6-------6-------------1----2---1----2---1------
D --------6------6--------------7-------7-------------2----2---2----2---2------
A --------4------4--------------7-------7-------------2----2---2----2---0------
E ------------------------------5-------5-------------0----0---0----0---0------
Well you took me in and you drove me out yeah you had me hypnotised yeah,
E --------4------4--------------5-------5--------------7-------------7---
B --------5------5--------------5-------5----------------7-------------7--
G --------4------4--------------6-------6------------------7-------------9
D --------6------6--------------7-------7------------9------------9------
A --------4------4--------------7------------------7------------7-----
E ------------------------------5----------------7------------7------
----then continue riff a then b
send comments, suggestions or tabs to [email protected]




Ваше мнение



Капча