Date: Sun, 10 Nov 1996 00:14:39 -0500
From: Dwayne Avery
Subject: Miracle Man Tab!
interpretation of
research.##

"Miracle Man" words and music by: Ozzy Osbourne, Zakk Wylde and B.
Daisley
from the albulm "NO Rest for the Wicked" albulm date 1988
Transcribed by, Dwayne Avery....any comments or corrections send to
[email protected]
Play (Riff) (4X) (b)up 1/2 step
(intro)
|------------5--------------------5---------------|
|------------5--------------------5---------------|
|---------------4---2---------------4(b)--2-------|
|---------------4---2--4------------4(b)--2-------|
|----------------------4--------------------------|
|----2-2-2-2--------------2-2-2-2-----------------|
Riff2 Play 4X (hold) "looking for a Mir-acle
Man
(first 2 verses)
|--------------------------------|----------|-----------------------------|
|--------------------------------|----------|-----------------------------|
|--------------------------------|----------|-----------------------------|
|--------------------------------|------(4)-|-----------------------------|
|----4--4----------4--2----------|------(2)-|--4-4------------------------|
|----O--2--2-2-2-2-O--O--2-2-2-2-|--2-2-----|--O-2-2-2-2-2-2-2--2--2--2--2|
"that tells me no lies"
{pinch harmonic} I don`t know....from|
|--------------------------------||------7(b)-7--5-----------|
|--------------------------------||------7(b)-7--5-7---------|
|---4------------------------{9}-||----------------7---------|
|---2--4-4-----------------------||---6--------------9-- 11--|
|------2-2-----4--4--------------||---4--------------7----9--|
|----------X-X-O--2-O-2-O-2------||-----------------------9--|
I don`t know where...been!
|----7(b)-7-5----------------|
|----7(b)-7-5--7-------------|
|--------------7-------------|
|--6---------------9------11-|
|--4---------------7-------9-|
Not our Jimmy sinner... he`s so
obscene
(6th verse) [let ring] {pinch
harm.}
|-------------------------------------------------------------------------|
|-------------------------------------------------------------------------|
|-------------------------------------------------------------------------|
|--6--9--9--8--6--4--6--[6]-----------------------------------------------|
|--4--7--7--6--4--2--4--[4]--5-5-5-5-5-4-4-4-4-4-3-3-3-3-3-2-2-2-2-2------|
|--------------------------------------------------------------------{3~}-|
Miracle Man Your busted/ Miracle Man.....
|------------5----------------------------------|
|------------5----------------------------------|
|----------------4--2----------------4--2-------|
|----------------4--2--4-------------4--2--(4)--|
|----------------------4-------------------(4)--|
|--2-2-2-2------------------2-2-2-2-------------|
{solo}
|------14--------14---------14--------14-----|
|----14--------14--14-----14--------14-------|
|--16-----16-16---------16-----16-16-----16--|
|--------------------------------------------|
|--------------------------------------------|
|--------------------------------------------|
|-----16-------16---------16---------16-----|
|---17--------17--------17--------17--------|
|-18-----18--18----18-18-----18-18-------18-|
|-------------------------------------------|
|-------------------------------------------|
|-------------------------------------------|
(solo continued)
|------17-------17----17----17----|---19-16-------------19-16---------------|
|----19-------19----19----19--19--|---------19-16-------------19-16---------|
|--19----19-19----19----19--------|--------------18-16--------------18-16---|
|---------------------------------|-----------------------------------------|
|---------------------------------|-----------------------------------------|
|---------------------------------|-----------------------------------------|
{note about Zakk`s pinch harmonics,just kidd`n Zakk}
{Pinch harmonics} {"shake~ till it sounds like you`re killing a cat"}
|------------------------------------------|---------------------------------(14b~)--|
|---{5~}--------{5~}---------{7~}----------|---------------------------5~~-----------|
|--------{4~}--------{4~}----------{6~}----|---4(b)-4(b)-(4b)-(4b)-4-----------------|
|------------------------------------------|-----------------------------------------|
|------------------------------------------|-----------------------------------------|
|------------------------------------------|-----------------------------------------|
|--------------------------------------|
|--------------------------------------|
|--11-12-11-9-11-9---11-12-11-9-11-9---|
|-----------------9-----------------9--|
|--------------------------------------|
|--------------------------------------|
(Bend whole step)
|------------------------------------------------------{14~}----|
|----(12b~)----(2b)-(4b)-(5b)--(7b)-(-9b)-(10b)-(12b)-----------|
|----(12b~)----(4b)-(6b)-(7b)--(9b)-(11b)-(12b)-(14b)-----------|
|---------------------------------------------------------------|
|---------------------------------------------------------------|
|---------------------------------------------------------------|
Transcribed by, Dwayne Avery
Send any questions or comments to ([email protected])
Check back later and I`ll have "Bloodbath in Paradise" by Ozzy




Ваше мнение



Капча