here's the tab for miracle man solo. i know that this is what zakk himself
plays as he shows you on his DVD. play slowly to get used to the fingering
then speed up.
Tuning(low to high) E A D G B E
B = BEND
R = RELEASE BEND
~ = VIBRATO
/ = SLIDE
E----9-14----9-14----9-14----9-14----9-14----
B-12------12------12------12------12------12-
G--------------------------------------------
D--------------------------------------------
A--------------------------------------------
E--------------------------------------------
E----12-16----12-16----12-16----12-16----
B-14-------14-------14-------14-------14-
G----------------------------------------
D----------------------------------------
A----------------------------------------
E----------------------------------------
E----14-17----14-17----14-17----14-17----14-17-|
B-15-------15-------15-------15-------15-------|
G----------------------------------------------|
D----------------------------------------------|
A----------------------------------------------|
E----------------------------------------------|
1ST Time you play this add this bit at the end
E-19-14-------17-14-------19-14-------17-14-----------|
B-------17-14-------17-14-------17-14-------17-14-----|
G-------------------------------------------------16~-|
D-----------------------------------------------------|
A-----------------------------------------------------|
E-----------------------------------------------------|
2ND Time add this
E-------------------------------------------------------|
B-17B19R17P14-------17B19R17P14-------17B19R17P14-------|
G-------------16B18-------------16B18-------------16B18-|
D-------------------------------------------------------|
A-------------------------------------------------------|
E-------------------------------------------------------|
E--------------------------------------------------------
B--------------------------------------------------------
G-4B6-(6)-(6)-(6)-(6)-(6)-(6)-(6)-(6)-R4-4B6R4B6-9/21B23-
D--------------------------------------------------------
A--------------------------------------------------------
E--------------------------------------------------------
T
E------------------------------------------------------9---
B--------------------------------------------8/9--8/9--12B-
G-11-12-11-9-11-9-------11-12-11-9-11-9------9/10-9/10-----
D-----------------11-9------------------11-9-8/9--8/9------
A----------------------------------------------------------
E----------------------------------------------------------
E----------------------------------------------------------|
B-2---4---5---7----9-----10----12--------------------------|
G-4B6-6B8-7B9-9B11-11B13-12B14-14B16---/21~~~~~~~~~~~~~~~~~|
D----------------------------------------------------------|
A----------------------------------------------------------|
E----------------------------------------------------------|
there you have it this is one of the best solos zakk has done and this is exactly
how he plays it. i haven't tabbed the rest because ver 1 is a good tab but i thought you might
like the proper solo.




Ваше мнение



Капча