this is a good solo, enjoy.

e---------------------------------------------------
b---------------------------------------------------
g----------------------17^17^-15-14-14h15p14p/12~---
D--9-11-12-10-12^-14~~------------------------------
A---------------------------------------------------
E---------------------------------------------------

e---------------------------------------------------
b---------------------------------------------------
g----------------------17^17^-15-14-14hh15p14p/12~--
D--9-11-12-10-12^-14~~------------------------------
A---------------------------------------------------
E---------------------------------------------------

e------------------------------------------------------
b------------------------------------19-19-19-17-19^-18
g------------------------------------17-17-------------
D--9-11-12-10-12~~~~--15p14p13h14-15-------------------
A------------------------------------------------------
E------------------------------------------------------

e-------------22--------------
b--18-19-20-22---19-18-16~~~~~
g-----------------------------
D-----------------------------
A-----------------------------
E-----------------------------

^=bend
/=slide
~=vibrato
p=pull off
h=hammer on




Ваше мнение



Капча