-------------------------------------------------------------------------------
MAMA IM COMING HOME SOLO - Ozzy Osbourne
-------------------------------------------------------------------------------
Tabbed by: Tom Smith
Email:[email protected]
Tuning: down one half step
~=vibrato
h=hammer-on
p=pull-off
B=bend
( )=the note a bend ends on
/--=notes are connected, you only pick once
This song is tuned down a half step.


/--------
e|----------------------12-----12-----------------------------------|
B|----------------------12B----12B--12p10h-12~---10--10h12p10--9~---|
G|-------9----9--11B------------------------------------------------|
D|--9-11---11-------------------------------------------------------|
A|------------------------------------------------------------------|
E|------------------------------------------------------------------|
/--------
e|----------------------12-----12-----------------------------------|
B|----------------------12B----12B--12p10h-12~---10--10h12p10--9~---|
G|-------9----9--11B------------------------------------------------|
D|--9-11---11-------------------------------------------------------|
A|------------------------------------------------------------------|
E|------------------------------------------------------------------|
/----------
e|------------------------------------|
B|------------------------------------|
G|-------9----9~----11B(11)-11p9--11--|
D|--9-11---11-------------------------|
A|------------------------------------|
E|------------------------------------|
e|-----------------------------------------------|
B|--19B(21)--19B(21)-17h19p17--19B(19)-17h19~----|
G|-----------------------------------------------|
D|-----------------------------------------------|
A|-----------------------------------------------|
E|-----------------------------------------------|
e|------16--17--18--19----------------------|
B|---19-----------------19B(19)-17----17~~~-|
G|---------------------------------18-------|
D|------------------------------------------|
A|------------------------------------------|
E|------------------------------------------|
================================================================================




Ваше мнение



Капча