Сначала лучше послушайте полностью всю песню, примерно если знаете английский,
то выучите более менее текст, а затем просто напросто смотрите в этот таб,
дальше уже поймете, и обыграете все так как захотите итд итп.
good luck!
(13)b11 - bend 11th fret up to 13, strike note and release bend
/ - slide up
Intro
E ---12---------------
B ------12------------
G ---------(13)b11--9-
D --------------------
A --------------------
E --------------------
E ----0-------0-------0-------0------0-------0-------0--------0----
B ------0-------0-------0-------0------0-------0--------0--------0-
G --9------8-------6-------4-------2------1------------------------
D ------------------------------------------------4--------2-------
A -----------------------------------------------------------------
E -----------------------------------------------------------------
Times are strange... (2nd time through)
E ----0-------0-------0-------0------0-------0-------0--------0----
B ------0-------0-------0-------0------0-------0--------0--------0-
G --9------8-------6-------4-------2------1------------------------
D ------------------------------------------------4--------6-------
A -----------------------------------------------------------------
E -----------------------------------------------------------------
Aadd2 E5 Esus4
E --------0------------0------------0---------0-------0----
B ----------0------------0------------0---------0-------0--
G ------2------------2-----2------------1-1/2-----2/4------
D ----2------------2--------------2------------------------
A --0------------0--------------2--------------------------
E ----------------------------0----------------------------
Mama I´m...
Pre-chorus:
C#min A add2 Emaj Esus4 Emaj
E ----------4------------------0---------------------0-----------0---0------
B ----------5------------------0---------------------0-----------0---0------
G ----------6------------------2---------------------1-----------2---1------
D ----------6------------------2---------------------2-----------2---2------
A ----------4------------------0---------------------2-----------2---2------
E ---------------------------------------------------0-----------0---0------
(Well you took me in and you threw me out yeah you had me hypnotised)
C#min A add2 Bmaj
E --4------------------0---------------------2-
B --5------------------0---------------------4-
G --6------------------2---------------------4-
D --6------------------2---------------------4-
A --4------------------0---------------------2-
E ---------------------------------------------
(Lost and found and turned around by the fire in your eyes)
A add2 Emaj
I´ve seen your face a thousand times...
Chorus:
A B C D E
´cos mama, mama I´m comin´ hoooooooooooooome




Ваше мнение



Капча