INTRO
Moderate Rock = 144
A5 B5/A
RIFF A
|----------|------------------------------|------------------------------|
|----------|------------------------------|------------------------------|
|----------|--2---------------------------|--4---------------------------|
|----------|--2---------------------------|--4---------------------------|
|----------|--0---0-0-0-0-0-0-0-0-0-0-0-0-|-(X)--0-0-0-0-0-0-0-0-0-0-0-0-|
|-17------|------------------------------|------------------------------|
C5/A G5 D5
b:1/4
|-----------------------------|--3-------------------------|
|-----------------------------|--3-----------3-------------|
|--5--------------------------|--0-----------2-------------|
|--5--------------------------|--------------0-------------|
|-(X)---0-0-0-0-0-0-0-0-------|--------------0-------^-----|
|-----------------------/19--|--3-------------------3-----|
A5 B5/A
|------------------------------|------------------------------|
|------------------------------|------------------------------|
|--2---------------------------|--4---------------------------|
|--2---------------------------|--4---------------------------|
|--0---0-0-0-0-0-0-0-0-0-0-0-0-|-(X)--0-0-0-0-0-0-0-0-0-0-0-0-|
|------------------------------|------------------------------|
C5/A G5 D5
(end RIFF A) FILL 1 (end FILL 1)
|------------------------------|----------------------------------|
|------------------------------|--1-0-1-0-1-0---------------------|
|--5---------------------------|--------------2p0-2p0-------------|
|--5---------------------------|----------------------2p0---------|
|-(0)---0-0-0-0-0-0-0-0-X-----|--------------------------3p0-----|
|-----------------------X-----|------------------------------3p0-|
VERSE 1 with RIFF A:
People look to me and say, Is the end near? When is the final day?
What's the future of mankind? How do I know I got left behind?
Everyone goes through changes, looking to find
RIFF B
|-----------------------|-----3--------3----------|-------------------------|
|--0------0-------------|-----1--------1----------|-0------0----------------|
|--0------0-------------|-----0--------0----------|-0------0----------------|
|--0------0-------------|--3-----3--3-------------|-0------0----------------|
|-----------------------|-------------------0-----|-------------------------|
|--3------3-------------|--3-----3-------------3--|-3------3--------------3-|
the truth. Don't look at me for answers
b:1/2
|--------1--------3---------|---------------------------|-----------3-------|
|--1-------1--------3-------|--3------3-----------------|----6------6--6----|
|--0------------------------|--0------0---------------0-|--5------5---------|
|--3------------------------|--0------0-----------------|3------3-----------|
|----------------------^----|---------------------------|-------------------|
|--3-------------------5----|--3------3-----------------|-------------------|
Don't ask me, I don't know! No!
(end RIFF B)
|--1---------0------|---------------------------|---------------------------|
|--1---------1------|---------------------------|---------------------------|
|--2---------0------|--7--------------5---------|--2------------------------|
|--3---------2------|--7--------------5----5----|--2------------------------|
|-------------------|--5--------------3----5----|--0---0-0-0-0-0-0-0-0-0-0-0|
|-------------------|----------------------3----|---------------------------|
Ev'rybody now
|---------------------------------|-----------------------------------|
|---------------------------------|-----------------------------------|
|-----4---------------------------|--5--------------------------------|
|-----4---------------------------|--5--------------------------------|
|-0-------0-0-0-0-0-0-0-0-0-0-0-0-|--------------0-0-0-0-0-0----------|
|---------------------------------|--------------------------17--8--|
* Use hammer-ons & pull-offs
|--------------------------------------------------|
|----------------------------------------------0---|
|--0-5-0-5-0-5-0-5-0-5-0-5-0-5-0-4-0-4-0-2-0---0---|
|--------------------------------------------------|
|--------------------------------------------------|
|--------------------------------------------------|
|------------------------------|-------------------------------|
|------------------------------|-------------------------------|
|--2---------------------------|--4----------------------------|
|--2---2-----------------------|--4----------------------------|
|--0---0---0-0-0-0-0-0-0-0-0-0-|-------0---0-0-0-0-0-0-0-0-0-0-|
|------------------------------|-------------------------------|

Harm.
|------------------------------|--------------------------|
|------------------------------|--------------------------|
|--5---------------------------|--0--------7--------------|
|--5---------------------------|--0--------7--------------|
|---------0-0-0-0--------------|--------------------------|
|-----------------/19----0----|--3--------------------0--|
VERSE 2 with RIFF A
How am I supposed to know
Hidden meanings that will never show
Fools and prophets from the past,
life's a stage and we're all in the cast.
PRE-CHORUS with RIFF B
You gotta believe in someone,
asking me who is right.
Asking me who to follow.
Don't ask me,
I don't know I don't know
|--------------|-------------------|---------------|-------------------|
|--------------|-------------------|---------------|-------------------|
|--5-----------|-----7---7------5--|-----5---------|-----7---7------5--|
|--5----5------|-----7---7------5--|-----5---5-----|-----7---7------5--|
|--3----5------|-0-0---------------|-----3---5-----|-0-0---------------|
|-------3------|-------------------|---------3-----|-------------------|
I don't know I don't know
|--------------|---------------------------|-----------------|---------|
|--------------|---------------------------|-----------------|---------|
|-----5--------|-------7---7-----------0---|-------5---------|--2------|
|-----5---5----|---2-0-7---7-----------0---|-------5---------|--2------|
|-----3---5----|---0-0-------------0-------|-------3---------|--0------|
|---------3----|-----------------------3---|-----------3pp0--|---------|
C'mon everybody, stand up now, c'mon!
|-----------------------------------------------|
|-----------------------------------------------|
|-----------------------------------------------|
|-----------------------------------------------|
|-----------------------------------------------|
|--3-5-3-----2---------------0--1--1--1--0------|
BRIDGE
RIFF C b:1/2 (end RIFF C)
|--------------|------2---------|------3-3---------|-------------------|
|---3---3h5-3--|----------------|-----------3------|---------3-3-------|
|---2----------|------------2---|--------------0---|-----2--------54--|
|---0----------|----------------|------------------|-----3-------------|
|--------------|--3-------------|--2---------------|-------------------|
|--------------|----------------|------------------|--1----------------|
Play 2 times
BRIDGE with RIFF C (5 times)
Nobody ever told me, I found out for myself.
You gotta believe in foolish miracles.
It's not how you play the game, it's if you win or lose.
You can choose, win or lose, don't confuse, it's up to you!
|--1---------0------|---------------------------|
|--1---------1------|---------------------------|
|--2---------0------|--7--------------5---------|
|--3---------2------|--7--------------5----5----|
|-------------------|--5--------------3----5----|
|-------------------|----------------------3----|
INTERLUDE
It's up to you!
|-------------------|-------------------|-------------------|
|-------------------|-------------------|-------------------|
|-----7---7------5--|----0--7-----------|-----7---7------5--|
|-----7---7------5--|----0--7-----------|-----7---7------5--|
|-0-0---------------|----------5--6--7--|-0-0---------------|
|-------------------|-------------------|-------------------|
It's up to you! It's up to
|-------------------|-------------------|-------------------|
|-------------------|-------------------|-------------------|
|----0--7-----------|-----7---7------5--|----0--7-----------|
|----0--7-----------|-----7---7------5--|----0--7-----------|
|----------5--6--7--|-0-0---------------|----------5--6--7--|
|-------------------|-------------------|-------------------|

you! Go! Go! Go! b:full
|-------------------|--------------------^----|
|-------------------|-------------------18----|
|-----7---7------5--|-------------------------|
|-----7---7------5--|-------------------------|
|-0-0---------------|-------------------------|
|-------------------|-------------------------|
GUITAR SOLO
b:full b:full
|---^-----|-15-------------------15-------------------------------|
|--18-----|----18-15--^----15-15----18p15----15-------------------|
|---------|----------17-------------------18----18-15-17-15-------|
|---------|-------------------------------------------------19-17-|
|---------|-------------------------------------------------------|
|---------|-------------------------------------------------------|
b:full b:full b:full b:1/2
|------------17------17---|-(17)p15----------|--------------^-----|
|---^---------------------|---------18p15----|-13p10-13p10-13p10--|
|--17---15----------------|------------------|-T-----T-----T------|
|-------------------------|------------------|--------------------|
|-------------------------|------------------|--------------------|
|-------------------------|------------------|--------------------|
b:1/2 b:1/2 b:1/2 b:full .........................................
|--^-----^-----^-----^-----^-----^-----^-----^-----^-----^-----^---|
|-13p10-13p10-13p10-13p10-13p10-13p10-13p10-13p10-13p10-13p10-13p10|
|-T-----T-----T-----T-----T-----T-----T-----T-----T-----T-----T----|
|------------------------------------------------------------------|
|------------------------------------------------------------------|
|------------------------------------------------------------------|
b:full .............................
|--^-----^-----^-----^-----^-----^-----|--------------------------|
|-13p10-13p10-13p10-13p10-13p10-13p10--|--------------------------|
|-T-----T-----T-----T-----T-----T------|--3p0-3p0-3p0-3p0-3p0-3p0-|
|--------------------------------------|--------------------------|
|--------------------------------------|--------------------------|
|--------------------------------------|--------------------------|
b:full
|---------------------------------------|-------------------------|
|---------------------------------^-----|-------------------------|
|-3p0-3p0-3p0-3p0-3p0-3p0-3p0-3p0-3-----|-------------------(15)--|
|---------------------------------------|--------------15-17-15---|
|---------------------------------------|------13h15/17-----------|
|---------------------------------------|-13h15-------------------|
|----------------18-20-21-20-18-20-21-20-18-20-20-20-20/21pp20-|
|-------20p17/20-----------------------------------------------|
|-17-18--------------------------------------------------------|
|--------------------------------------------------------------|
|--------------------------------------------------------------|
|--------------------------------------------------------------|
b:full b:full b:1«...... b:1«....
|-----18----------|--20-----20----------^-------------------------|
|-20------20pp18--|--------------------15------(15)-------0-------|
|-----------------|-----------------------------------------------|
|-----------------|-----------------------------------------------|
|-----------------|-----------------------------------------------|
|-----------------|-----------------------------------------------|
|----------------------------------------------|-------------------|
|-11-10-------11-10-------11-10-------10-9-----|-9-8------7-6------|
|-------12-10-------12-10-------12-10------11-9|-----10-8-----8-6--|
|----------------------------------------------|-------------------|
|----------------------------------------------|-------------------|
|----------------------------------------------|-------------------|
b:full b:full
|-----------------|--------3-------------------------|------------------|
|-6-5-----4p3-----|--^---3---6p3-4p3---3-------------|------^--15-18p15-|
|-----7-5-----5p3-|--5---------------6---6p3-5p3---3-|---5/17-----------|
|-----------------|------------------------------5---|------------------|
|-----------------|----------------------------------|------------------|
|-----------------|----------------------------------|------------------|
b:full ......
|--------^----^----^---|--------------------|----------------------|
|----15--17---17---17-|--------------------|--1p0-1p0-------------|
|-17-----17---17---17-|-------7---7------5-|----------2p0---------|
|----------------------|-------7---7------5-|--------------2p0-----|
|----------------------|--0-----------------|------------------3p0-|
|----------------------|--------------------|----------------------|
b:full b:1/4
|--------------------|----------5---------------------|------------------|
|--------------------|----^---5---8p5-6p5---5-----^---|------------------|
|-------7---7------5-|----7---------------8---8p7p5---|-----7---7------5-|
|-------7---7------5-|--------------------------------|-----7---7------5-|
|--0-----------------|--------------------------------|-0----------------|
|--------------------|--------------------------------|------------------|
b:full
|--------------17------20--20-----|-------------------|-----------|
|------------------17-------------|-------------------|-----------|
|------6/--18---------------------|------7---7------5-|-----------|
|---------------------------------|------7---7------5-|-----------|
|---------------------------------|-0-----------------|-----------|
|---------------------------------|-------------------|---173----|
|-----------------------------|------------------------------|
|-----------------------------|------------------------------|
|-2---------------------------|--4---------------------------|
|-2---------------------------|--4---------------------------|
|-----0-0-0-0-0-0-0-0-0-0-0-0-|--0---0-0-0-0-0-0-0-0-0-0-0-0-|
|-----------------------------|------------------------------|
b:1/4
|-----------------------------|--3-------------------------|
|-----------------------------|--3-----------3-------------|
|--5--------------------------|--0-----------2-------------|
|--5--------------------------|--------------0-------------|
|-(X)---0-0-0-0-0-0-0-0-------|--------------0-------^-----|
|-----------------------/19--|--3-------------------3-----|
|-----------------------------|------------------------------|
|-----------------------------|------------------------------|
|-2---------------------------|--4---------------------------|
|-2---------------------------|--4---------------------------|
|-----0-0-0-0-0-0-0-0-0-0-0-0-|--0---0-0-0-0-0-0-0-0-0-0-0-0-|
|-----------------------------|------------------------------|
b:full b:full
|-------------------------20--|--17-20p17----17----------------------|
|-----------------------------|-----------20----20p17----17--------^-|
|--5--------------------------|-----------------------19----19p17h19-|
|--5--------------------------|--------------------------------------|
|-(X)---0-0-0-0-0-0-0-0-------|--------------------------------------|
|-----------------------------|--------------------------------------|
VERSE 3 with RIFF A:
People look to me and say, Is the end near? When is the final day?
What's the future of mankind? How do I know I got left behind?
Everyone goes through changes, looking to find

|-----------------------|-----3--------3----------|-------------------------|
|--0------0-------------|-----1--------1----------|-0------0----------------|
|--0------0-------------|-----0--------0----------|-0------0----------------|
|--0------0-------------|--3-----3--3-------------|-0------0----------------|
|-----------------------|-------------------0-----|-------------------------|
|--3------3-------------|--3-----3-------------3--|-3------3--------------3-|
the truth. Don't look at me for answers
b:1/2
|--------1--------3---------|---------------------------|-----------3-------|
|--1-------1--------3-------|--3------3-----------------|----6------6--6----|
|--0------------------------|--0------0---------------0-|--5------5---------|
|--3------------------------|--0------0-----------------|3------3-----------|
|----------------------^----|---------------------------|-------------------|
|--3-------------------5----|--3------3-----------------|-------------------|
Don't ask me, I don't know!

|--1---------0------|---------------------------|---------------------------|
|--1---------1------|---------------------------|---------------------------|
|--2---------0------|--7--------------5---------|---------------------------|
|--3---------2------|--7--------------5----5----|--7-----------------------|
|-------------------|--5--------------3----5----|--7-----------------------|
|-------------------|----------------------3----|--5-----------------------|
ah that feels better have fun




Ваше мнение



Капча