(Clean)
e----------- --------------- ----------- ---------------
B-----8----- --------8------ ----8------ --------8------
G---9--11-9- ---------11-9-- ---9--11-9- ---------11-9--
D--9-9-----9 (2x)----10-------10 (2x)--9-9-----9 (2x)----10-------10
A-7--------- --10--10------- -7--------- --10--10-------
E----------- -8------------- ----------- -8-------------
e------------------15
B----------------14--
G--------11-12-14----
D----10--------------
A--10--10------------
E-8------------------
(With Distortion) the slide is only on the firs time.
e--------------------------------------------
B--------------------------------------------
G--------------------------------------------
D-------------------------------------------- (2x) RIFF 1
A-12/------22-24^-2-24^-2-222-24^-2-2-2---5h7
E-12/------00-02^-0-02^-0-000-02^-0-0-05h7---
e-------------------------------------------------------------------
B-------------------------------------------------------------------
G-------------------------------------------------------------------
D------------------------------------------------------------------- (2x)
A-22-24^-2-24^-2-222-24^-2-24^-2-222-24^-2-24^-2-222-24^-2-24^--0000 RIFF 2
E-00-02^-0-02^-0-000-02^-0-02^-0-000-02^-0-02^-0-000-02^-0-02^--0000
PM-- - - - - --- - - - - --- - - - - --- - - - ----
RIFF 1 (2x)
RIFF 2 (2x)
RIFF 1 (2x)
e------------------- --------
B------------------- --------
G-9---11---9---11-14 -9---11-
D-x---x----x---x--x- (3x)-x---x--
A-7---9----7---9--12 -7---9--
E------------------- --------
(SOLO)
e-------------------------------------------------------------
B-------------------------------------------------------------
G---9--11^-11^--1212-9---14^-12-1111-12--14^-12-1111-12-------
D--------------------------------------10--------------10-----
A----------------------------------------------------------12/
E----------------------------------------------------------12/
e------------------------------------------------------------------------
B------------------------------------------------------------------------
G-9109109109109109109109-91191191191191199119119-912912912912912912912912
D------------------------------------------------------------------------
A------------------------------------------------------------------------
E------------------------------------------------------------------------
e-------------------------------------------------------------------------
B------------------------101010101010101010-8888888888888888-----------17^
G-9109109109109109109109--------------------------------------------------
D-------------------------------------------------------------------------
A-------------------------------------------------------------------------
E-------------------------------------------------------------------------




Ваше мнение



Капча