Fire in the Sky (from No Rest for the Wicked)
=============================================

Tune down 1/2 step
Key:
ph = pinch harmonic
. = muted

----------------------------|-----------------|-------------------------|-----
----------------------------|-----------------|-------------------------|-----
---------14--13-------------|-----------------|-----12--------12--------|-----
-12--14--14--13--14--12-----|-14---12-12-12---|-----12--------12--------|-----
-12--14--12--11--14--12-----|-14---12-12-12---|-----10--------10--------|-----
-10--12----------12--10-----|-12---10-10-10---|-0-0----0--0-0----0--0-0-|-----
Intro/Chorus riff 1st time 2nd time

---------0--------0-----------------------------------------------------------
-------0-------0----0---------------------------------------------------------
-----2----------------2-------------------------------------------------------
---2--------------------2-----------------------------------------------------
-0------------------------0---------------------------------------------------
------------------------------------------------------------------------------
Verse riff (clean)

-----8--7------------8--7-----------8--7--------------------------------------
-----------10--------------10-------------10--9-------------------------------
------------------------------------------------------------------------------
-7--------------10--------------7-------------6-------------------------------
-7--------------10--------------7-------------6-------------------------------
-5--------------8---------------5-------------4-------------------------------
Pre-solo (2 guitars) part A

------------------------------------------------------------------------------
------------------------------------------------------------------------------
------------------------------------------------------------------------------
-2---------------10----10----10----10----12------12------12------12-----------
-2---------------10----10----10----10----12------12------12------12-----------
-0------------88-8--88-8--88-8--88-8--88-10-1010-10-1010-10-1010-10-1010------
.. .. .. .. .. .. .. .. ..
Pre-solo part B

------------------------------------------------------------------------------
------------------------------------------------------------------------------
------------------------------------------------------------------------------
--14---14---14---14---14--14--14--14---14---14---14---14-\--------------------
--14---14---14---14---14--14--14--14---14---14---14---14-\--------------------
--12-1212-1212-1212-1212--12--12--12-1212-1212-1212-1212-\--------------------
. . . . . . . .
Pre-solo part B(cont.)

------------------------------------------------------------------------------
------------------------------------------------------------------------------
---------------------------2-2------------------------------------------------
-3-----3ph-3-----3ph-3---------3ph-2ph----------------------------------------
---4-5-------4-5-------4-5----------------------------------------------------
------------------------------------------------------------------------------
Pre-solo part C

------------------------------------------------------------------------------
------------------------------------------------------------------------------
-14121412-------17151715-------19171917-------21192119------------------------
---------1412-----------1715-----------1917-----------2119--------------------
----X4-------------X4--------------X4-------------X4--------------------------
------------------------------------------------------------------------------
Solo

-15121512-------17151715-------191715-15vvvv----------------------------------
---------1513-----------1715--------------------------------------------------
------------------------------------------------------------------------------
---X4--------------X4------------X8-------------------------------------------
------------------------------------------------------------------------------
------------------------------------------------------------------------------
Solo (cont.)

|------------------------------------------------------------------------------
|------------------------------------------------------------------------------
|-7b--bend full, slowly release and rebend full--------------------------------
|----------------------(do this twice, listen to song for timing---------------
|------------------------------------------------------------------------------
|------------------------------------------------------------------------------
|
|
|----1-----1-----1-----1-------3-----3-----3-----3-----------------------------
|-------3-----------3-------------3-----------3--------------------------------
|-2-----------2-------------2-----------2--------------------------------------
|------------------------------------------------------------------------------
|-------X2--------------------------X2-----------------------------------------
|------------------------------------------------------------------------------
|
|
|------------------------------------------------------------------------------
|------------------------------------------------------------------------------
|------------------------------------------------------------------------------
|---all these notes are VERY heavily muted-------------------------------------
|----------------------------------------------------------------10-10-8-8-----
|-10-10-13-13-12-13-----00000-----00----10-10-13-13-12-----10-10-----------10--
Post-solo interlude (3 guitars)

back to chorus riff




Ваше мнение



Капча