Ozzy Osbourne
Facing Hell (Song)
Down to Earth (album)
Anthony Procopio
[email protected]
Drop D then down a half step (tuning)
I AM LEGEND
(ph) pinch harmonic
(x) palm mute
(b) bend 1 full step
() slide
Intro riff1
Eb-------------------------------------------------
Bb-------------------------------------------------
Gb-------------------------------------------------
Db----0--0--6-5-3-x-x-3-x-3-12-12-12-12-----------
Ab----0--0--6-5-3-x-x-3-x-3-12-12-12-12-----------
Db----0--0--6-5-3-x-x-3-x-3-12-12-12-12-----------
Eb------------------------------------------
Bb------------------------------------------
Gb------------------------------------------
Db----0--0--6-5-3-x-x-3-x-3-8--------------
Ab----0--0--6-5-3-x-x-3-x-3-8--------------
Db----0--0--6-5-3-x-x-3-x-3-8---3(ph)------
Verses
You made a promise....
Eb---------------------------------------------
Bb---------------------------------------------
Gb---------------------------------------------
Db----2 2 2 2 - 3 3 3 3 - 4 4 4 4 - 2 2 2 2----
Ab----2 2 2 2 - 3 3 3 3 - 4 4 4 4 - 2 2 2 2----
Db----2 2 2 2 - 3 3 3 3 - 4 4 4 4 - 2 2 2 2 4b-
Pre-chorus (not sure) palm muted
Eb------------------------------------------
Bb------------------------------------------
Gb------------------------------------------
Db----3333333 4444444 33333333 2222222------
Ab----3333333 4444444 33333333 2222222------
Db----3333333 4444444 33333333 2222222------
Chorus (riff1)
Bridge
Eb-----------------------------
Bb-----------------------------
Gb-----------------------------
Db----0 0 0 6 0 6 0 0 0 5 3----
Ab----0 0 0 6 0 6 0 0 0 5 3----
Db----0 0 0 6 0 6 0 0 0 5 3----
dont know the solo
phew that was hard




Ваше мнение



Капча