note: my tabs are reversed of normal tabs. It is about 95% correct, not to sure about
the ending, check the video.
= slide
~= vibrato
^= bend
E-------------------------------
a-------------------------------
d--12-------5------------7~~~--
g-------------5--7-9^--5-7------
b-------------------------------
e-------------------------------
E-----------------------------------
a-----------------------------------
d--5--------------------------------
g---5-7-9-----------9~~~~~---95-5~~
b--------7-9-11-~~~-----------------
e-----------------------------------
E-------------------------------------------
a-------------------------------------------
d-------------------------------------------
g---9-----------------------------------15~~
b-----12--------------17 17^-17^-17^p-15----
e-------12-14-15-17-19----------------------
E--------------10-12------------------
a-----------------10-12---------------
d--15^ 12~~---------10-12-------------
g---------------------9-12------------
b----------------------11-13----------
e------------------------10-12~~~~~~~-




Ваше мнение



Капча