here's the way i play it the CORRECT solo...... sounds closer than all of yours...
------------------------------------------------------------
------------------------------------------------------------
------------------------------------------------------------
------------11----13--13^13--11--13-------------11---13--15-
--------11-------------------------13~------11--------------
--24/-------------------------------------------------------

---------------------------------------------------13---14--
-----------------------------------------14---16------------
--11---13---15--------------------/15-----------------------
------------------13^--13^--11~-----------------------------
------------------------------------------------------------
------------------------------------------------------------
--16/18--13-------------------------------------------------
--------------16^---16^----16^------------------------------
-----------------------------------15^15---13--15~--15^---13
------------------------------------------------------------
------------------------------------------------------------
------------------------------------------------------------
------------------------------------------------------------
-----------------------------------------13---14--16--16/18~
----------------------------11--13--15----------------------
--------------11--13--15------------------------------------
--11--13--15------------------------------------------------
------------------------------------------------------------




Ваше мнение



Капча