# solo s=slide v=vibrato b=bendig r=release bending p=pull off h=hammer on
E------------------------------------------------------6--------------
B--------------------------------------------------7-9----------------
G----6-8-8b10-r8-6-8-----------------------6-8-s10-------8b10v-10p8---
D--6-----------------6s8v-s0-slide down---6------------------------11-
A---------------------------------------------------------------------
E---------------------------------------------------------------------

E-------------13-14-16-18---------------------------------------------
B-------14-16-------------16b18-16b1816b18-16b18----------------------
G-12b13------------------------------------------17p15---15b17v—15b17-
D-----------------------------------------------------18--------------
A---------------------------------------------------------------------
E---------------------------------------------------------------------

E------------------------------------11-12b14v~~~~~~~~~~~~~~~~~~~~14--
B---------------------------11-13-14----------------------------------
G-13---------------10-11-13-------------------------------------------
D—--------10-11-13----------------------------------------------------
A---11-13-------------------------------------------------------------
E-----------------play-fast-----------------/------------------------




Ваше мнение



Капча