Devil's Daughter (from the studio album, No Rest for the Wicked)
================================================================
RIFF 1
~~
||------------------|-----------------|-----------------|--------------||
||------------------|-----------------|-----------------|--------------||
||------------------|-----------------|-----------------|--------------||
||--7-----5-----7---|---5-------------|-7-----5-----7---|--------------||
||----0-0---0-0---0-|-0---0-0-3-6-5-3-|---0-0---0-0---0-|-0-5^b---5-3--||
||------------------|-----------------|-----------------|--------------||
RIFF2 *1st ending *2nd ending
||-------------------|-------------------|-------------------|----------||-------------||
||--7---7--5---5--2--|(2)----0---0--2----|--7---7--5---5--0--|(0)-------||-------------||
||--7---7--5---5--2--|(2)----0---0--2----|--7---7--5---5--0--|(0)-------||--0----------||
||--7---7--5---5--2--|(2)----0---0--2----|--7---7--5---5--0--|(0)-------||--0----------||
||-------------------|-------------------|-------------------|-------3--||--x----------||
||-------------------|-------------------|-------------------|-------1--||--3----------||
RIFF3
||--3---2--------|------------------|--3--2-------|------------------|--3--2----------|
||--3---3---2----|--------8---------|--3--3-------|------------------|--3--3---2------|
||--2---2---2----|----5---7^8^7^5---|--2--2-------|------------------|--2--3---2------|
||--0---0---2----|--7---7-----------|--0--0---3---|(3)-3-3-3-3-3-3-3-|--0--0---2------|
||----------0----|------------------|---------3---|(3)-3-3-3-3-3-3-3-|---------0------|
||---------------|------------------|---------1---|(1)-1-1-1-1-1-1-1-|----------------|

||-------------------|-----------------|-----------------|-----------------|-0----------||
||--------8----------|-----------------|-----------------|-----------------|-0----------||
||---5----7^8^7^5----|-----------------|-----------------|-----------------|-1----------||
||-7---7---------7---|-5-5-5-5-5-5-5-5-|-0-0-0-0-0-0-0-0-|-3-3-3-3-3-3-3-3-|-2----------||
||-------------------|-5-5-5-5-5-5-5-5-|-0-0-0-0-0-0-0-0-|-3-3-3-3-3-3-3-3-|-2----------||
||-------------------|-3-3-3-3-3-3-3-3-|-2-2-2-2-2-2-2-2-|-1-1-1-1-1-1-1-1-|-0----------||

SOLO
~~ ~~~~~~~ ~~~
||-------------|---------------------|---------|-------------------|-------------|
||--------17^b-|----17---------------|---------|--12---------------|--------17^b-|
||-----15------|-------13-15^13-15^b-|(15)-----|--11^b-rb^11^9-11--|-----15------|
||--16---------|---------------------|---------|-------------------|--16---------|
||-------------|---------------------|---------|-------------------|-------------|
||-------------|---------------------|---------|-------------------|-------------|
~~ ~~~~~~~~~ ~~~~
||-------------------|-----------|------------------|--------------------------|
||--17---------------|-----------|------------------|-14--------14--------14---|
||-----13-15^13-15^b-|(15)-------|-11^b---11-11-----|-14--------14--------14---|
||-------------------|-----------|------------------|---16161616--16161616-----|
||-------------------|-----------|------------------|--------------------------|
||-------------------|-----------|------------------|--------------------------|
||------------------------------------------|--------------------------|
||-13121013-12101312-10131210-12^b^12^10-12-|-14--------14--------14---|
||------------------------------------------|-14--------14--------14---|
||------------------------------------------|---16161616--16161616-----|
||------------------------------------------|--------------------------|
||------------------------------------------|--------------------------|
||-12-11-10-9-8-12-11-10-|-------------------------|-14-----------14------------|
||-----------------------|-14--------14--------14--|---17^14-17^b---17^14-17^b--|
||-----------------------|-14--------14--------14--|----------------------------|
||-----------------------|---16161616--16161616----|----------------------------|
||-----------------------|-------------------------|----------------------------|
||-----------------------|-------------------------|----------------------------|

||-------------------------|-14^b--------|-----------------------------------|
||-14--------14--------14--|------14-14--|-8^0-7^0-5^0-7^0-8^0-7^0-5^0-7^0---|
||-14--------14--------14--|-------------|-----------------------------------|
||---16161616--16161616----|-------------|-----------------------------------|
||-------------------------|-------------|-----------------------------------|
||-------------------------|-------------|-----------------------------------|
||-----------------------------------|---------------------------------|--------------|
||-10^0-8^0-7^0-8^0-10^0-8^0-7^0-8^0-|-5^0-3^0-1^0-3^0-5^0-3^0-1^0-3^0-|-2----5---7---|
||-----------------------------------|---------------------------------|-4^b--7^b-9^b-|
||-----------------------------------|---------------------------------|--------------|
||-----------------------------------|---------------------------------|--------------|
||-----------------------------------|---------------------------------|--------------|
||---------------------------------|-----------------------------------|
||-8^0-7^0-5^0-7^0-8^0-7^0-5^0-7^0-|-10^0-8^0-7^0-8^0-10^0-8^0-7^0-8^0-|
||---------------------------------|-----------------------------------|
||---------------------------------|-----------------------------------|
||---------------------------------|-----------------------------------|
||---------------------------------|-----------------------------------|

||---------------------------------------|---------------|--------------------------------|
||-12^0-10^0-8^0-10^0-12^0-10^0-8^0-10^0-|-2----5---7----|-----17-20^17----17-20^17----17-|
||---------------------------------------|-4^b--7^b-9^b--|-19^b--------19^b--------19^b---|
||---------------------------------------|---------------|--------------------------------|
||---------------------------------------|---------------|--------------------------------|
||---------------------------------------|---------------|--------------------------------|
||-----------------------------------|----------------------------------|------------------|
||-20^17----17-20^17----17-20^17-----|-17-20^17----17-20^17----17-20^17-|------------------|
||------19^b--------19^b--------19^b-|---------19^b--------19^b---------|-19^b^19-17-19----|
||-----------------------------------|----------------------------------|------------------|
||-----------------------------------|----------------------------------|------------------|
||-----------------------------------|----------------------------------|------------------|

||-20^b--rb^20^17--20^17-----------|-20^b--rb^20^17--20^17-----------|-20^b^20-17-------------|
||----------------------20^17------|----------------------20^17------|-----------20^b^20-17---|
||---------------------------19^17-|---------------------------19^17-|---------------------19-|
||---------------------------------|---------------------------------|------------------------|
||---------------------------------|---------------------------------|------------------------|
||---------------------------------|---------------------------------|------------------------|
~~~~~~~~~~~~
||-------------------||
||-------------------||
||--19^b-------------||
||-------------------||
||-------------------||
||-------------------||




Ваше мнение



Капча