SONG: DEE
WRITTEN BY: Randy Rhoads
TRANSCIBED: Bryan Mier
TABLATURE EXPLANATION

/ = slide
h = hammer-on
p = pull-off

harm.
|---7--------7-----------7------7-------7---10------10-----|
|--------7h8-----10------7----------7------------8---------|
|------7-----------------7--------7---7---7----7---7--7----|
|-----------------9------7------9------------9-------------|
|--10------------------------------------------------------|
|----------------------------------------------------------|
|------------12---12------7-------7------------------------|
|---------10------------------7h8-----10---------8-----8---|
|-------9--------------------7----------------------6------|
|--9/11----------------------------------------------------|
|------------------------10------------9---------7---------|
|----------------------------------------------------------|
|---------------------0-----0------------------------------|
|---7-----5-----3--------0-----5pp3-----3---3---------3----|
|------------------------------------6-------------2-----2-|
|-----------------------------------------------0----------|
|---5-----4-----2--------------0------------2--------------|
|---------------------3------------------------------------|
|-0--------2h3p2p0---2-----2----------------0-2-3----------|
|----3-------------------0---0--------0----------------0---|
|----------------------2-------2--2-2---2------------0---0-|
|--------------------1-----------------------------2-------|
|---------------------------------2------------------------|
|-------------------------------------------3-2-0----------|
harm.
|-3p2--2p0---0-----------12--------------------------- 2-3-|
|----------3----2-----3--12--------------------------- 3-3-|
|------------------0-----12----2h4p2p0---------------------|
|------------------------------------4p2p0--------0--------|
|------4--------0--------------------------4p2p0-----------|
|----------------------------------------------------------|
|-5h7p5------------0---------2-3-5-7h9h7---------------5p3-|
|--------3----- 3-----3------3-3-3--------2-----2-3/5------|
|----------- 2-------------------------------0-------------|
|-------------------------0----------------------------0---|
|--------2--------------------------------0----------------|
|----------------------------------------------------------|
|--3p2--2p0--2p0-----0------0------------------------------|
|----------------3p0------3---2p0-3/5---2-------3----3-----|
|-------------------------------------------0------------2-|
|----------------------------------------------------------|
|------------4------------2-------------0------------2-----|
|----------------------------------------------------------|
harm.
|------------7---5---5---3----7----------------------------|
|------------8---7-------5----7----------------------------|
|-----------------------------7----------------------------|
|--0--------------------------7----------------------------|
|------2p0-----------4-------------------------------------|
|------------0---------------------------------------------|




Ваше мнение



Капча