tab key
ps=pick scratch (on second time round on intro there is a pick
scratch dubbed over the notes are played under it.) you'll
see when you lisen to it
pm=palm mute (very light palm mute in this tune)
xx x x=x (over a note means note palm muted)
t=tap (tap the fret above the t)
^=bend note
h=hammer on
p=pull off
psps psps
a----------------------------5-5----7-7-----------------------------------
E-2-2----5-5-----0-0---2-2------------------------------------------------
after pick scratch
e-------------------------------------------------------------------------
b-------------------------------------------------------------------------
g-------------------------------------------------------------------------
d-------------------------------------------------------------------------
a------4---5---4---2-0---0-2-0---------4---5---4---2-0---0-2-0------------
E--2-2---2---2---0-----4------4-0--2-2---2---2---0-----4------4-0---------
pm x x x x x xx x x x x x x x x x x x x x x xx x
e-------------------------------------------------------------------------
b-------------------------------------------------------------------------
g-------------------------------------------------------------------------
d---------------------------------------------------7-7--9-9--------------
a------4---5---4---2-0---0-2-0---------4---5---4----5-5--7-7--------------
E--2-2---2---2---0-----4------4-0--2-2---2---2---0------------------------
pm x x x x x xx x
e-------------------------------------------------------------------------
b-------------------------------------------------------------------------
g-------------------------------------------------------------------------
d---------7------9------7--2----------------------------------------------
a-0-00000-4-0000-7-0000-5--0----------------------------------------------
E----------------------------3-0------------------------------------------
^
e-------------------------------------------------------------------------
b-------------------------------------------------------------------------
g-------------------------------------------------------------------------
d-------------------------------------------------------------------------
a-------------------------------------------------------------------------
E--0-0-2-0-2-4-5-4-2-0-2-4------------------------------------------------
-GUITAR SOLO-
------------------------------------------------------------------------------
-14p10p7h10-14p10p7h10-14p10p7h10-14p10p7h10-14p10p7h10-15p10p7h10-15p10p7h10-
------------------------------------------------------------------------------
-t-----------t----------t----------t----------t----------t----------t---------
------------------------------------------------------------------------------
------------------------------------------------------------------------------
^
^ ^
------------------------------------------------------------------------------
-15p10p7h10--9h12p9h12p9h12p9h12p9\7h10p7h10p7h10p7-----10--------------------
-----------------------------------------------------9------9-----------------
--t---------------------------------------------------------------------------
------------------------------------------------------------------------------
------------------------------------------------------------------------------
^ ^
-17--16--14---------14--16--17--17------14--17p14-------14--------------------
-------------17-----------------------------------17------17--14--15p14-15p14
------------------------------------------------------------------------------
------------------------------------------------------------------------------
------------------------------------------------------------------------------
------------------------------------------------------------------------------
^ ^
--------------------------------------------------------14h17p14h17p14h17p14/
----------------------------17---------------------14h17----------------------
17p14--16p14------------16------16p14--------14h16----------------------------
---------------16p14----------------------------------------------------------
------------------------------------------------------------------------------
------------------------------------------------------------------------------
/16h19p16/17h21p17h21p17h21p17h21p17h21p17\16h19p16h19p16h19p16\14h17p14h17---
------------------------------------------------------------------------------
------------------------------------------------------------------------------
------------------------------------------------------------------------------
------------------------------------------------------------------------------
------------------------------------------------------------------------------
^ ^ xxxxxxxxxxxxxxxxxxxxxxxxxxxxxxxx
p14h17p14------17-------------------------------------------------------------
-----------17------17-----17--14----------------------------------------------
-----------------------------------16--14------14--------------14-------------
-------------------------------------------16------16--14----------16--14-----
-----------------------------------------------------------16--------------16-
------------------------------------------------------------------------------
------------------------------------------------------------14--17p16p14------
---------------------------------------------------------17-------------------
14--13h14p13----16-14p13-------16---------------14-16/18----------------------
----------------------------16------------14-16-------------------------------
-------------------------------------14-16------------------------------------
------------------------------------------------------------------------------
^ ^
19p17--19p17---19----19----|
---------------------------|
---------------------------| play riff B
---------------------------|
---------------------------|
---------------------------|




Ваше мнение



Капча