Close My Eyes Forever (Ozzy w/ Lita Ford)
-----------------------------------------
Intro:
|---------0---------------0-------|---------------------------------|
|-----------0---------------0-----|-----0-----0---------0-----0-----|
|-----5-------5-------5-------5---|---7-----7-----7---7-----7-----7-|
|---7---7-------7---7---7-------7-|-5-----5-----5---5-----5-----5---|
|-0---------------0---------------|---------------------------------|
|---------------------------------|---------------------------------|
|------------------------0-------|
|-----0-----0---------0----0-----|
|---5-----5-----5---5--------5---|
|-3-----3-----3---3-----3------7-|
|--------------------------------|
|--------------------------------|
|---------0---------------------|
|-----------0----------5--------|
|-----5-------5-------5----7----|
|---7---7-------7---7----5---5--|
|-0---------------0-------------|
|-------------------------------|
Verse:
|---------0---------------0-------|---------------------------------|
|-----------0---------------0-----|-----0-----0---------0-----0-----|
|-----5-------5-------5-------5---|---7-----7-----7---7-----7-----7-|
|---7---7-------7---7---7-------7-|-5-----5-----5---5-----5-----5---|
|-0---------------0---------------|---------------------------------|
|---------------------------------|---------------------------------|
|----------------------------0---|
|----0-----0---------0-----0---0-|
|--5-----5-----5---5-----5-------|
|3-----3-----3---3-----3---------|
|--------------------------------|
|--------------------------------|
|---------0---------------------|---------0---------------0-------|
|-----------0-----------------0-|-----------0---------------0-----|
|-----5-------5-------5-----7---|-----5-------5-------5-------5---|
|---7---7-------7---7---7-5-----|---7---7-------7---7---7-------7-|
|-0---------------0-------------|-0---------------0---------------|
|-------------------------------|---------------------------------|
|--------0------------------------|
|----0-----0---------0-----0---0--|
|--7---------7-----7-----7---0----|
|5-----5-------5-5-----5----------|
|---------------------------------|
|---------------------------------|
|-------------------------0-------|---------0--------------------|
|-----0-----0---------0-----0-----|-----------0----------------0-|
|---5-----5-----5---5---------5---|-----5-------5--------5-------|
|-3-----3-----3---3-----3-------3-|---7---7-------7----7------7--|
|---------------------------------|-0----------------0------0----|
|---------------------------------|------------------------------|
"If I close my eyes forever..."




Ваше мнение



Капча