-------------------------------------------------------------------------------
Childre of the grave - Ozzy osbourne
This is taken off the Ozzy osbourne Tribute Album
-------------------------------------------------------------------------------
Tabbed by:eddie rulz
Email:[email protected]

Tuning: standard tuning

e|----xs/-----||-------------------------|---------------------------------|
B|----xs/-----||-------------------------|---------------------------------|
G|------------||--6-----------6----------|---9-9-9-9-9-9--9-9-9-9--x-xs/---|
D|--------xs/-||--6-----------6----------|---9-9-9-9-9-9--9-9-9-9--x-xs/---|
A|--------xs/-||--4--4--4-4-4-4--4-4-4-4-|---7-7-7-7-7-7--7-7-7-7--x-xs----|
E|------------||-------------------------|---------------------------------|

~~~~~~~~~~~~~~
e|----------------|---------------------|--------------------------------|
B|----------------|---------------------|--------------------------------|
G|----------------|---------------------|--2-------------------9ah-------|
D|--6-------------|------------9-----9/-|--2-----------------*-----------|
A|--4---------(4)-|---(4)------7-----7/-|--0---------------*-------------|
E|----------------|------------0--------|----------------*---------------|

~~~~~~~~
e|-----------------------------------|-------------------|
B|--(9)ah----------------------------|-------------------|
G|--------------xs/------------------|-------------------|
D|--------------xs/--4---------------|-------------------|
A|-------------------2-------4--2--4-|--6----------6p4p2-|
E|-----------------------------------|-------------------|
(-------)
~~~ ~~~~~
e|-----------------------------|---------------------------|
B|---------------5-------------|--5------------------------|
G|--6------------4-------------|--4------------------------|
D|--6--------------------------|---------------------------|
A|--4---(4-4-4-4)-----(4-4-4-4)|-----(4-4-4-4)-------------|
E|-----------------------------|-----------------5---4-----|
(-------) (-------) (-------)
~~~~~ ~~~~~~~~~
e|------------------------------|---------------------------------|
B|------------------5-----------|---------------------------------|
G|---6--------------4-----------|---6-----------------------------|
D|---6--------------------------|---6-----------------------------|
A|---4---(4-4-4-4)-----(4-4-4-4)|---4--4-4-4-4--------------------|
E|------------------------------|---------------5-----4-----------|
(-------) (-------) (-------)

e|--------------------------------------|------------------------12----------|
B|--------------------------------------|------------------------12----------|
G|--------------------------------------|------------------------------------|
D|---11-----------------11--------------|--11--------------------------------|
A|---11-----------------11--------------|--11--------------------------------|
E|---9-----9--9--9--9---9----9--9--9--9-|--9---9---9--9--9--9----------------|

| / slide up
| slide down
| h hammer-on
| p pull-off
| ~ vibrato
| + harmonic
| x Mute note
| xs pick slides
| b bend
| * pick rakes
| ah artificial harmonics
| (------) Palm mute
===========================================================================




Ваше мнение



Капча