Artist: Ozzy Osbourne
Ablum:Speak Of The Devil (Live In Germany)
Song: Ironman/ Children Of The Grave
Intro: bend behind nut on open E string.
x4
|-------------------|
|-------------------|
|-----/|------------|
|i2-/--------------| i = index finger
|---/--------------|
|t0^---------------| t = thumb
x7
|-------------------------------------------------------------|
|-------------------------------------------------------------|
|-------------------------------------------------------------|
|-------------------------------------------------------------|
|--9-/-12--12/14-14----1716-1716-1712--12-12/14-14---------|
|--7-/-10--10/12-12----1514-1514-1510--10-10/12-12---------|
x3
|------------------------------------|
|------------------------------------|
|------------------------------------|
|------------------------------------|
|------5-----------------------------|
|--7-7---7-7-6-5-5-5--0-5-4/54/5-6--|
x3
|-------------|-----------------------------------------------|
|-------------------------------------------------------------|
|-------------|




Ваше мнение



Капча