Center of Eternity (from the album Bark at the Moon)
====================================================
Verse:
|-------|---------------------------------------------------------------------|
|-------|---------------------------------------------------------------------|
|-------|---------------------------------------------------------------------|
|-2-2-2-|-5-------7-------8----7----5-------5-------7-------8----7------------|
|-0-0-0-|-3-00000-5-00000-6-00-5-00-3-00000-3-00000-5-00000-6-00-5-00---------|
|-------|---------------------------------------------------------------------|
Chorus:
Let the chords ring. The entire 'journey to the centre..' part is
only one chord. A keyboard is used to make it sound cool.
|-------------------------------------------------------|-------|
|-----------------------------------------------------/-|-------|
|----------------------------------------------------/--|-------|
|---------------------------------------------------/---|-------|
|-7-5---------7-5---------5-3---33333333--3-5------/----|-5-----|
|-5-3---------5-3---------3-1---11111111--1-3---22/-----|-3-----|
Fill 1
|------------------------------|
|------------------------------|
|-------------------3'4'5'4'3--|
|-------------3'4'5------------|
|-------3'4'5------------------|
|-3'4'5------------------------|
Fill 2
|-------------------------|
|-------------------------|
|---------7/--------------|
|------------7/-----------|This is played so fast the slides sound
|-3/-3'0--------6/--------|like individual notes. Its easy to miss
|-------------------------|
Fills played between verse and chorus.
No solo...I'd like to see someone try though. Tab books for this album cannot
be purchased anywhere because they don't exist. I have done my best. Enjoy what
you can.




Ваше мнение



Капча