#----------------------------------PLEASE NOTE---------------------------------#
#This file is the author's own work and represents their interpretation of the #
#song. You may only use this file for private study, scholarship, or research. #
#------------------------------------------------------------------------------##
Title: Black Illusion
Band: Ozzy Osbourn
Album: Down to Earth
Words: if u have them post them on the site
Transcribed By: David Rojas
My Email: [email protected]
Missing: I Don't Think Anything
Note : Drop all strings down a whole step (i think)
I don't have the solo yet but if u have it i'll give u credit if u
email and i put it in. listen to the song for timing.
E|-----------------------------------------------------------|
B|-----------------------------------------------------------|
G|-----------------------------------------------------------|
D|-2-4-4-4-2-4-4-4-2-4-4-4-2-4-4-4-2-4-4-4-------------------|
A|-2-4-4-4-2-4-4-4-2-4-4-4-2-4-4-4-2-4-4-4-------------------|
E|-0-2-2-2-0-2-2-2-0-2-2-2-0-2-2-2-0-2-2-2-------------------|
|play this or thiswhen needed
E|---------------|-6-3-0-----|-6-3---------------------------|
B|---------------|-----------|-----2-------------------------|
G|---------------|-----------|-------------------------------|
D|-2-5-7-8^^^-7-5|-----------|-------------------------------|
A|-2-5-7-8^^^-7-5|-----------|-------------------------------|
E|-0-3-5-6^^^-7-5|-----------|-------------------------------|
E|-----------------------------------------------------------|
B|-----------------------------------------------------------|
G|-----------------------------------------------------------|
D|-9-7-T-9--9-7-T-T------------------------------------------|
A|-----------------------------------------------------------|
E|-----------------------------------------------------------|




Ваше мнение



Капча