Author/Artist: Ozzy Osbourne
Title: Believer
Album: Diary of a Madman
Transcribed by: John "The Axeman" Wilkison
Email: [email protected]
Upcoming rockstars need tab too. Rock on! {:)}
bass transcribed for guitar goes all the way till the second riff
------------------------------------------------------------------------------
------------------------------------------------------------------------------
------------------------------------------------------------------------------
------------------------------------------------------------------------------
------9-----------------------------------------------------------------------
-0---------0-----9-9-9\-------------------------------------------------------
--------------------0----|------------------------------|---------------------
-------------------------|------------------------------|---------------------
----------------2--------|-2-----5--4vv---------4-------|---6/7---------------
-------5--4vv------------|---3------------2h5-----------|---4/5--x-x--7--7----
-0h2---------------------|------------------------------|--------x-x--5--5----
-------------------------|--------------------------0---|---------------------
--------------------------------------|---------------------------------------
--------------------------------------|---------------------------------------
------------------------------------7-|---9----------9----------4-----7-------
-9----------9----------4h5p4------7---|---9----------9----------4-----7-------
-7----------7----------------5--7-----|---7----------7----------2-----5-------
-----0--0-------0--0------------------|-------0--0------0--0------------------
p--| p--| p----| p--| p--|
--------------------------------------|------------------------12-------------
------------------------------------7-|---------------------------12--11vvv---
----------------------------------7---|---9----------9------------------------
-9----------9----------4h5p4----7-----|---9----------9------------------------
-7----------7----------------5--------|---7----------7------------------------
-----0--0-------0--0------------------|-------0--0------0--0------------------
p--| p--| p----| p--| p--|
the other parts are simple fifth cords and the solo is too hard so :P~




Ваше мнение



Капча