Title track from the Studio Album, Bark at the Moon
---------------------------------------------------


|-----------------------------|----------------------------------|--------|
|8------------8------------8--|----------------------------------|--------|
|7------------7------------7--|----------4------5-----7------7-9-|-R I F F|
|5------------5------------5--|----------3------3-----5------5-7-|----1---|
|--0-0-0-0-------0-0-0-0------|--0-0-0-0----0-0---0-0---0-0------|--------|
|-----------------------------|----------------------------------|--------|
|---------------------|
|---------------------|
|---------------------|
|---------------------|
|--1-0-1-3-1-0--------|
|--------------3-1----|

|---------0-------0---------------------------------|------0---0----------/\------|
|---------3-------0---------------------------------|------3---0---------/-/\-----|
|---------2-------1---------------------------------|------2---1--------/-/-\\----|
|-4-------0-------2---------------------------------|--4---0---2-------/-/---\\---|
|-4---------------2---------4-4-4-4-5-5-5-5-4-4-2-2-|--4-------2-----10-/-----\\--|
|-2---------------0------2-2------------------------|--2-------0-----10--------\\-|
|-----------| | | | | | | | | |
|-8-10------| | | | | | | | | |
|-7-9-------|RIFF 1|RIFF 2|RIFF 1|RIFF 3|RIFF 1|RIFF 2|RIFF 1|RIFF 3|RIFF 4|
|-5-7-------| | | | | | | | | |
|-----------| | | | | | | | | |
|-----------| | | | | | | | | |
"Bark At The moon..."
------------------------------------------------------------------|
------------------------------------------------------------------|
-2--------- 5-7-------4------4---7---------2-2---2---2--4-4-------|
-2--------- 5-7-------5----5---5-----------3-3---3---3--5-5-------|
---0-0-0-0------0-0----------------3-2-----0-0-X-0-0--------------|
---------------------------------------2--------------------------|
|-----------------------------------------------------------------------------------|
|-----------------------------------------------------------------------------------|
|---2--------- 5-7-------4------4---7777-5^4----2-2---2--2-2-2--4---4------/--------|
|---2--------- 5-7-------5----5---5----------5--3-3---3--3-3-3--5---5-----/---------|
|-----0-0-0-0------0-0--------------------------0-0-X-0--0-0-0----0------/------- --|
|-0---------------------------------------------------------------------/-(0) ^1 ---|
slide




Ваше мнение



Капча