song: barck at the moon
artist: ozzy osbourne
tabed by: Brian Elkins
note: I did not put in measure lines.

intro p.m.-------- p.m.-------- p.m.-------- p.m.------
----------|-|------------------------------------------------------------
----8---10|-|--------------10--------------10-------------8--------------
----7---9-|-|o-------------9---------------9--------------9--------------
----5---7-|-|o-------------7---------------7--------------7--------------
----------|-|--0--0--0--0------0--0--0--0-----0--0--0--0-----0--0--0--0--
----------|-|------------------------------------------------------------
p.m.----------- p.m.-------- p.m.-------- p.m.---------
p
-------------------------------------------------------------------------
------8------------------8--------------8--------------8-----------------
------9------------------7--------------7--------------7-----------------
------7------------------5--------------5--------------5-----------------
---------0--0--3^0--0--0----0--0--0--0-----0--0--0--0-----0--0--0--0-----
-------------------------------------------------------------------------
--------------------------------------|--------------------------|
p.m.-- p.m.-- p.m .-- .1 .2
-------------------------------------------|-|---------------------------
------6---------------------------8---10---|-|---------------------------
------5--------10--------9--------7---9--o-|-|---------------------------
------3--------9---------9--------5---7--o-|-|---------------------------
---------0--0------0--0-----0--0-----------|-|--1--0--1--3--1--0---------
-------------------------------------------|-|--------------------3--1---
w/fill.1 (2nd time)
w/fill.2 (3rd time)
chorus p.m.--------------
-------------------------------------------------------------------------
---7----------7------3----------3------5-----------5---------------------
---6----------6------2----------2------4-----------4---------------------
---4----------4------0----------0------2-----------2---------------------
---4----------4------0----------0------2-----------2--------4-4-----2-2--
--------------------------------------------------------2-2-----2-2------
---------------------- dive w/ bar
-------------------------------------------------------------------------
---------------------------7-------------3-------------------------------
---------------------------6-------------2-------------------------------
---------------------------4-------------0-------------9-----------------
------5-5-----4-4----------4-------------0-------------7-----------------
--2-2-----2-2-----2-2----------------------------------0-----0-----------
Interlude
p.m.-- p.m.---
-------------------------------------------------------------------------
-------------------------------------------------------------------------
---2---------5---7--------4--------4------5/7\5--4---------4---2----2----
---2---------5---7--------5----5-5---5---------------------5---3----3----
---0---0--0-------------------------------3/5\3--2-----------------------
-----------------------------------------------------3-------------------
p.m.----- p.m.----------------------
-------------0-----------------------------------------------------------
-----------0-------------------------------------------------------------
---2--4-------------2-------------5--7----4---------4-4-----7-7-5-5-4-4--
---3--5-------------2-------------5--7----5-----5-5-----5-5--------------
--------------------0----0---0-0-----------------------------------------
-------------------------------------------------------------------------
bridge
----- p.m.----- p.h.~~~~~~
-------------------------------0-------|---------------------------------
-------------------------------0-------|---------------------------------
------4--2------2-----2--4-----4-------|---------------------------------
-5-5--5--3------3-----3--5-----2-------|---------------------------------
---------------------------------------|-2---3------3-----2----------2---
---------------------------------------|-0---1---1-----1-------------0---
p.m----- p.h.~~~~~~ dive 1 half step w/bar
-------------------------------3---------3-------------------------------
-------------------------------3---------3-------------------------------
-------------------------------0---------0-------------------------------
-------------------------------0---------0-------------------------------
--3------3------2--------------2---------2-------------------------------
--1---1-----1------------------3---------3-------------------------------
solo
~~~~~~~~~~ full
----------------------------|------------------------------10------------
----------------------------|---13------------13b--------------13-10-----
----------------------------|----------------------------------------12b-
----------9--7-----5--3-----|--------------------------------------------
2-3-------7--5-----3--1-----|--------------------------------------------
0-1-------------------------|--------------------------------------------
full p p.h. p h ~~~~
-------------------------------------------------------------------------
-------------------------------------------------------------------------
---------r12^10--12---10------9--10--9----10^9-------9-------------------
-------------------------------------------------12------10-10^12--------
-------------------------------------------------------------------------
-------------------------------------------------------------------------
full ~~~~~ full
-------------------------------------------------------------------------
-------------------------------------------------------------20b---------
--------------------------10-12b--r12^10--12-------------17--------------
--10----10----12----10-12------------------------------------------------
-----12----12----12------------------------------------------------------
-------------------------------------------------------------------------
h p ~~~~~~~ p ~~~~
-------------------------------------------------------------------------
------r-20--18--17^18^17-----17----------------------------22^18---------
--------------------------19----17-19---------17-----19------------19----
-------------------------------------------------------------------------
-------------------------------------------------------------------------
-------------------------------------------------------------------------
p p 1 & a
-------------------------------------------------------------------------
-----------18---22^18--20^18--17-18-17----------17-----------------------
--17--19--------------------------------17--------------17--19---19b-----
--------------------------------------------19------19-------------------
-------------------------------------------------------------------------
-------------------------------------------------------------------------
half p p.h.~~~~~~~ full full p
----------------------------------------------------10-------------------
---------------------------13b---b13---13-10-----10-----13^10------------
------r19^17---17----------------------------12b---------------12^10--12b
-------------------------------------------------------------------------
-------------------------------------------------------------------------
-------------------------------------------------------------------------
full p p.h.~~~ ~~~~~ ~~~~ ~~~~~ ~~~
-------------------------------------------------------------------------
-------------------------------------------------------------------------
-------r12^10------12---10-----------------------------------------------
---------------12--------------12-10-12------10s-----8-----7-----5---10--
-------------------------------------------------------------------------
-------------------------------------------------------------------------
~~~ ~~~~~ ~~~~~ ~~~~~~
-------------------------------------------------------------------------
------------------------10--------10---12^10------12--10-----------------
------------------------10--------10---12^10------12--10-----------------
-----8-----10-----12---------12---------------12-----------12--12--------
-------------------------------------------------------------------------
-------------------------------------------------------------------------
p.m.----------------------------- full p.m.------------
-------------------------------------------------------------------------
------------------------------------------5-----5-6b---------------------
----------------------------------5---5-7---5-7--------------------------
------------------------5-8-5-7-8---7------------------------------------
---------5-----5-8-5-8--------------------------------------------7------
-6-5-6-8---6-8-------------------------------------------8-6-8-10---8-10-
--------------------------- full
-------------------------------------------------------------------------
---------------------------------------------8--8b-----------------------
----------------------------7----7-9-10-9-10-----------------------------
-----------------7-8-7-8-10---10-----------------------------------------
7------7-10-7-10-----------------------------------------7----7-8-10-7-8-
--8-10-----------------------------------------------------10------------
h
---------------------------------------------------8-10----10s12-13-12^10
-------------------------------8----8--10-11-10-11-----------------------
--------------------7-9-7-9-10---10--------------------------------------
---7----7-8-10-8-10------------------------------------------------------
10---10------------------------------------------------------------------
-------------------------------------------------------------------------

-----------10-12-13s15-13-12-11-----------12-15-16-15-13s12----------12--
-13---11-------------------------15-13-15-------------------15-13-15-----
-------------------------------------------------------------------------
-------------------------------------------------------------------------
-------------------------------------------------------------------------
-------------------------------------------------------------------------
~~~~~~~~~~~~~~~~~~~~~~~~~~~~~~~~~~~~~~
13-15s18-16-15----------------15-17--------------------------------------
---------------18-17-15-17-18--------------------------------------------
-------------------------------------------------------------------------
-------------------------------------------------------------------------
-------------------------------------------------------------------------
-------------------------------------------------------------------------
The last time yuo play the Interlude before the solo play this
-------------------------------------------------------------------------
-------------------------------------5-5-3-3-----------------------------
--2------------5--7---4------4-4-------------4-4------4--2--2------2-2---
--2------------5--7---5--5-5-----5-5-------------5-5--5--3--3------3-3---
--0---0---0-0------------------------------------------------------------
-------------------------------------------------------------------------
outro solo
p p p p p
--------------------------|-|---8^7----7-8^7--8^7------7-8^7-8^7----7----
--------------------------|-|-------10-------------10------------10------
-2--4--------4---4--------|-|o-------------------------------------------
-3--5--------5---5--------|-|o-------------------------------------------
--------------------------|-|--------------------------------------------
--------------------------|-|--------------------------------------------
p p p p p p p p p p
-10^7---7-10^7--10^7---7-10^7-10^7---7--12^8----8-12^8-12^8----8-12^8-12^
------8--------------8-------------8-------------------------------------
---------------------------------------------10-------------10-----------
-------------------------------------------------------------------------
-------------------------------------------------------------------------
-------------------------------------------------------------------------
------------------------------------------|-------------------
p p p p p .1.3
8------8---10^7-----7-10^7-10^7----7-10^7-10^7---7---|-|--13^12^10--12-10
-----------------------------------------------------|-|-----------------
---10------------9---------------9-------------9----o|-|-----------------
----------------------------------------------------o|-|-----------------
-----------------------------------------------------|-|-----------------
-----------------------------------------------------|-|-----------------
------------------------------| fill .1
h p p .2.3 p.m.-----------------------
----------7^8^7----7----------|------------|-----------------------------
-13-12-10-------10---10^8-----|--10--------|-----------------------------
---------------------------9--|------------|-----------------------------
------------------------------|------------|-----------------------------
------------------------------|------------|------4-4-----5-5-----2-2----
------------------------------|------------|--2-2-----2-2-----2-2-----2-2
fill.2
---------- p.m.---------------------------------
-----------|--------------------------------------
-----------|--------------------------------------
-----------|--------------------------------------
-----------|----------------------4-4-------------
-4-4-------|------5-5-----4-4-------------5-5-----
-----2-2---|--2-2-----2-2-----2-2-----2-2-----2-2-




Ваше мнение



Капча