Back on Earth (from the Greatest Hits Album, The Ozzman Cometh)
---------------------------------------------------------------
Tune Down 1/2 Step
Main Riff:
Eb|-------------------------------------------------------|
Bb|-------------------------------------------------------|
Gb|-------------------------------------------------------|
Db|--5---5------------------10----10----10----10----------|
Ab|----7---7^9^10--9-10-9------10----10----10----10-------|
Eb|-------------------------------------------------------|
Verse:
Eb|---------------|-------0---0-------|-------------------|
Bb|---------------|-----1-------1-----|-------------------|
Gb|---0--------0--|--/2-----------2--x|-------------------|
Db|-5-------------|-/----------------x|-------------------|
Ab|---------------|-------------------|--8/7\8/7\8/7\8/7--|
Eb|-----0-2-3-----|-------------------|--6/5\6/5\6/5\6/5--|
Chorus:
Eb|------8--------5---------------------------|---------------------|
Bb|------------------------5------------------|-----------------2---|
Gb|----9---9----7---7----5---5----9-7--------x|-----5-4----5-2--2---|
Db|--7--------5--------7--------7-----10-----x|---3------0------2---|
Ab|-------------------------------------------|-----------------0---|
Eb|-------------------------------------------|---------------------|
Bridge:
Eb|----------------------------------|---------------|
Bb|----------------------------------|---------------|
Gb|----------------------------------|-7--7----------|
Db|------7-------5-------4-------3---|-7--7--8-10----|
Ab|----7---7---5---5---5---5---3---3-|-5--5--8-10----|
Eb|--5-------3-------2-------1-------|-------6-8-----|
Solo:
Eb|------------------------------------------5-5-----|
Bb|----------------3-5-3----------------3-5----------|
Gb|--5-5\2--2-4-5---------5-4-2--5-2-2---------------|
Db|--------------------------------------------------|
Ab|--------------------------------------------------|
Eb|--------------------------------------------------|
Eb|--5--7-8-8--8-7-5---5-5---5--------------------------------------------|
Bb|------------------8---------8-5-3/5\3/5-5-8-5---3/5--------------------|
Gb|----------------------------------------------7-----/5------5---7b9b7--|
Db|-------------------------------------------------------5/7----7--------|
Ab|-----------------------------------------------------------------------|
Eb|-----------------------------------------------------------------------|
Eb|---------------------10-12--12ph-10-------12------------|
Bb|---5--------------------------------13-10----13-10------|
Gb|-7---7-5------------------------------------------------|
Db|---------7-5/7-5----------------------------------------|
Ab|-----------------7--------------------------------------|
Eb|--------------------------------------------------------|
Repeat song one octave higher




Ваше мнение



Капча