By:Outkast
So fresh so clean
Tabbed by:Doug

I was really bored so I tabbed this song out.
This can either be played on the bass or guitar.

Signiture Riff:
g--------------5-3-------------------
d---------3-5------5--3--5--6-5-3----
a--3-5--6----------------------------
E------------------------------------

g-------------5-3-------------------
d---------3-5-----5--3--5--6-5-3----
a--3-5--6---------------------------
E-----------------------------------

Then you just repeat it over and over again and again.




Ваше мнение



Капча