Artist: Outkast
Song: Hey Nah

main riff
e-----------------
b-----------------
g-----5--5--7--9--
d--5--5--5--7--9--
a--5--3--3--5--7--
e--3--------------

other riff during chorus
e--------------12-------------12--------------------------------
b--12--13--15------12--13--15-----15--13--12------12------------
g---------------------------------------------14-----12---------
d--------------------------------------------------------14-14--
a---------------------------------------------------------------
e---------------------------------------------------------------




Ваше мнение



Капча