SONG - Waited
BAND - Our Lady Peace
ALBUM – Happiness…

Verse (strumming)
---0---0---0---0
---0---3---0---0
---2---2---1---2
---4---0---2---2
---4-------2---0
--(2)------0----
play note with thumb

Chorus
----------------
----------------
------7---9-----
--4---7---9---7-
--4---5---7---7-
--2-----------5-

ending chorus
-----------------
-----------------
------7---4------
--7---7---4---5-4
--7---5---2---5-4
--5-----------3-2




Ваше мнение



Капча