BTAB: Supersatellite
Artist: Our Lady Peace
Album: Naveed
Author: Jason ([email protected])

Verse:
G----|------------------------------------------------------------
D----|------------------------------------------------------------
A----|-----6-4-----6-4-----6-4-----6-4-----6-4-----6--------------
D-0-0|-0-0-----0-0-----0-0-----0-0-----0-0-----0-0--5--5-5-3--3-3-
^intro

Pre-chorus:
G----------------------------------------------------
D----------------------------------------------------
A-----------6-------------------------6------6-------
D-0-0---0-0----0-0---0-0-5--0-0---0-0----0-0---0-5-5-

Chorus:
G-------------------------------------------------------
D-------------------------------------------------------
A----6------6------6------------6------6------6---------
D-0----0--0---0-0----0--0-1--0----0--0---0-0----5-5-5-1-

Bridge:
G---------------------------------------------------------
D---------------------------------------------------------
A---------------------------------------------------------
D-5-3-5-3-5-3-5-3-5-3-5-3-5---3-5-3-5-3-5-3-5-3-5-3-6-6-6-

Listen to the recording to know where each part goes, you got everything
here. Great song!




Ваше мнение



Капча